0
SECTION
2
HEADER
9
$ACADVER
1
AC1009
0
ENDSEC
0
SECTION
2
TABLES
0
TABLE
2
LAYER
70
2
0
LAYER
2
1
70
64
62
4
6
CONTINUOUS
0
LAYER
2
kedersystem
70
64
62
4
6
CONTINUOUS
0
ENDTAB
0
ENDSEC
0
SECTION
2
ENTITIES
0
POLYLINE
8
kedersystem
62
0
66
1
70
9
0
VERTEX
8
kedersystem
10
-184.002326
20
53.937484
30
-11.699654
0
VERTEX
8
kedersystem
10
-184.291582
20
55.623930
30
-11.402289
0
VERTEX
8
kedersystem
10
-185.142333
20
57.111563
30
-11.139979
0
VERTEX
8
kedersystem
10
-186.453396
20
58.218520
30
-10.944792
0
VERTEX
8
kedersystem
10
-188.066163
20
58.808492
30
-10.840764
0
VERTEX
8
kedersystem
10
-189.783944
20
58.808492
30
-10.840764
0
VERTEX
8
kedersystem
10
-191.396711
20
58.218520
30
-10.944792
0
VERTEX
8
kedersystem
10
-192.707774
20
57.111563
30
-11.139979
0
VERTEX
8
kedersystem
10
-193.558525
20
55.623930
30
-11.402289
0
VERTEX
8
kedersystem
10
-193.847781
20
53.937484
30
-11.699654
0
VERTEX
8
kedersystem
10
-196.925054
20
53.937484
30
-11.699654
0
VERTEX
8
kedersystem
10
-196.925054
20
58.896776
30
-10.825197
0
VERTEX
8
kedersystem
10
-180.925054
20
58.896776
30
-10.825197
0
VERTEX
8
kedersystem
10
-180.925054
20
53.937484
30
-11.699654
0
SEQEND
0
POLYLINE
8
kedersystem
62
0
66
1
70
9
0
VERTEX
8
kedersystem
10
-196.925054
20
63.257904
30
13.907990
0
VERTEX
8
kedersystem
10
-196.925054
20
58.896776
30
16.425889
0
VERTEX
8
kedersystem
10
-191.682601
20
58.896776
30
16.425889
0
VERTEX
8
kedersystem
10
-189.911341
20
59.530996
30
16.059721
0
VERTEX
8
kedersystem
10
-187.938767
20
59.530996
30
16.059721
0
VERTEX
8
kedersystem
10
-186.167506
20
58.896776
30
16.425889
0
VERTEX
8
kedersystem
10
-180.925054
20
58.896776
30
16.425889
0
VERTEX
8
kedersystem
10
-180.925054
20
63.257904
30
13.907990
0
SEQEND
0
POLYLINE
8
kedersystem
62
0
66
1
70
9
0
VERTEX
8
kedersystem
10
-186.167506
20
58.896776
30
16.425889
0
VERTEX
8
kedersystem
10
-186.080084
20
58.865116
30
16.431471
0
VERTEX
8
kedersystem
10
-184.561642
20
57.598821
30
16.654753
0
VERTEX
8
kedersystem
10
-183.564808
20
55.888454
30
16.956337
0
VERTEX
8
kedersystem
10
-183.211417
20
53.937484
30
17.300346
0
VERTEX
8
kedersystem
10
-180.925054
20
53.937484
30
17.300346
0
VERTEX
8
kedersystem
10
-180.925054
20
58.896776
30
16.425889
0
SEQEND
0
POLYLINE
8
kedersystem
62
0
66
1
70
9
0
VERTEX
8
kedersystem
10
-194.285299
20
55.888454
30
16.956337
0
VERTEX
8
kedersystem
10
-193.288465
20
57.598821
30
16.654753
0
VERTEX
8
kedersystem
10
-191.770024
20
58.865116
30
16.431471
0
VERTEX
8
kedersystem
10
-191.682601
20
58.896776
30
16.425889
0
VERTEX
8
kedersystem
10
-196.925054
20
58.896776
30
16.425889
0
VERTEX
8
kedersystem
10
-196.925054
20
53.937484
30
17.300346
0
VERTEX
8
kedersystem
10
-194.638690
20
53.937484
30
17.300346
0
SEQEND
0
POLYLINE
8
kedersystem
62
0
66
1
70
9
0
VERTEX
8
kedersystem
10
-183.211417
20
53.937484
30
17.300346
0
VERTEX
8
kedersystem
10
-183.564808
20
51.986514
30
16.956337
0
VERTEX
8
kedersystem
10
-184.561642
20
50.276147
30
16.654753
0
VERTEX
8
kedersystem
10
-186.080084
20
49.009851
30
16.431471
0
VERTEX
8
kedersystem
10
-186.167506
20
48.978192
30
16.425889
0
VERTEX
8
kedersystem
10
-180.925054
20
48.978192
30
16.425889
0
VERTEX
8
kedersystem
10
-180.925054
20
53.937484
30
17.300346
0
SEQEND
0
POLYLINE
8
kedersystem
62
0
66
1
70
9
0
VERTEX
8
kedersystem
10
-191.770024
20
49.009851
30
16.431471
0
VERTEX
8
kedersystem
10
-193.288465
20
50.276147
30
16.654753
0
VERTEX
8
kedersystem
10
-194.285299
20
51.986514
30
16.956337
0
VERTEX
8
kedersystem
10
-194.638690
20
53.937484
30
17.300346
0
VERTEX
8
kedersystem
10
-196.925054
20
53.937484
30
17.300346
0
VERTEX
8
kedersystem
10
-196.925054
20
48.978192
30
16.425889
0
VERTEX
8
kedersystem
10
-191.682601
20
48.978192
30
16.425889
0
SEQEND
0
POLYLINE
8
kedersystem
62
0
66
1
70
9
0
VERTEX
8
kedersystem
10
-186.167506
20
48.978192
30
16.425889
0
VERTEX
8
kedersystem
10
-187.938767
20
48.343972
30
16.059721
0
VERTEX
8
kedersystem
10
-189.911341
20
48.343972
30
16.059721
0
VERTEX
8
kedersystem
10
-191.682601
20
48.978192
30
16.425889
0
VERTEX
8
kedersystem
10
-196.925054
20
48.978192
30
16.425889
0
VERTEX
8
kedersystem
10
-196.925054
20
44.617064
30
13.907990
0
VERTEX
8
kedersystem
10
-180.925054
20
44.617064
30
13.907990
0
VERTEX
8
kedersystem
10
-180.925054
20
48.978192
30
16.425889
0
SEQEND
0
POLYLINE
8
kedersystem
62
0
66
1
70
9
0
VERTEX
8
kedersystem
10
-196.925054
20
48.978192
30
-10.825197
0
VERTEX
8
kedersystem
10
-196.925054
20
53.937484
30
-11.699654
0
VERTEX
8
kedersystem
10
-193.847781
20
53.937484
30
-11.699654
0
VERTEX
8
kedersystem
10
-193.558525
20
52.251038
30
-11.402289
0
VERTEX
8
kedersystem
10
-192.707774
20
50.763404
30
-11.139979
0
VERTEX
8
kedersystem
10
-191.396711
20
49.656448
30
-10.944792
0
VERTEX
8
kedersystem
10
-189.783944
20
49.066475
30
-10.840764
0
VERTEX
8
kedersystem
10
-188.066163
20
49.066475
30
-10.840764
0
VERTEX
8
kedersystem
10
-186.453396
20
49.656448
30
-10.944792
0
VERTEX
8
kedersystem
10
-185.142333
20
50.763404
30
-11.139979
0
VERTEX
8
kedersystem
10
-184.291582
20
52.251038
30
-11.402289
0
VERTEX
8
kedersystem
10
-184.002326
20
53.937484
30
-11.699654
0
VERTEX
8
kedersystem
10
-180.925054
20
53.937484
30
-11.699654
0
VERTEX
8
kedersystem
10
-180.925054
20
48.978192
30
-10.825197
0
SEQEND
0
POLYLINE
8
kedersystem
62
0
66
1
70
9
0
VERTEX
8
kedersystem
10
-183.564808
20
55.888454
30
16.956337
0
VERTEX
8
kedersystem
10
-184.291582
20
55.623930
30
-11.402289
0
VERTEX
8
kedersystem
10
-184.002326
20
53.937484
30
-11.699654
0
VERTEX
8
kedersystem
10
-183.211417
20
53.937484
30
17.300346
0
SEQEND
0
POLYLINE
8
kedersystem
62
0
66
1
70
9
0
VERTEX
8
kedersystem
10
-184.561642
20
57.598821
30
16.654753
0
VERTEX
8
kedersystem
10
-185.142333
20
57.111563
30
-11.139979
0
VERTEX
8
kedersystem
10
-184.291582
20
55.623930
30
-11.402289
0
VERTEX
8
kedersystem
10
-183.564808
20
55.888454
30
16.956337
0
SEQEND
0
POLYLINE
8
kedersystem
62
0
66
1
70
9
0
VERTEX
8
kedersystem
10
-186.080084
20
58.865116
30
16.431471
0
VERTEX
8
kedersystem
10
-186.453396
20
58.218520
30
-10.944792
0
VERTEX
8
kedersystem
10
-185.142333
20
57.111563
30
-11.139979
0
VERTEX
8
kedersystem
10
-184.561642
20
57.598821
30
16.654753
0
SEQEND
0
POLYLINE
8
kedersystem
62
0
66
1
70
9
0
VERTEX
8
kedersystem
10
-187.938767
20
59.530996
30
16.059721
0
VERTEX
8
kedersystem
10
-188.066163
20
58.808492
30
-10.840764
0
VERTEX
8
kedersystem
10
-186.453396
20
58.218520
30
-10.944792
0
VERTEX
8
kedersystem
10
-186.080084
20
58.865116
30
16.431471
0
VERTEX
8
kedersystem
10
-186.167506
20
58.896776
30
16.425889
0
SEQEND
0
POLYLINE
8
kedersystem
62
0
66
1
70
9
0
VERTEX
8
kedersystem
10
-189.911341
20
59.530996
30
16.059721
0
VERTEX
8
kedersystem
10
-189.783944
20
58.808492
30
-10.840764
0
VERTEX
8
kedersystem
10
-188.066163
20
58.808492
30
-10.840764
0
VERTEX
8
kedersystem
10
-187.938767
20
59.530996
30
16.059721
0
SEQEND
0
POLYLINE
8
kedersystem
62
0
66
1
70
9
0
VERTEX
8
kedersystem
10
-191.770024
20
58.865116
30
16.431471
0
VERTEX
8
kedersystem
10
-191.396711
20
58.218520
30
-10.944792
0
VERTEX
8
kedersystem
10
-189.783944
20
58.808492
30
-10.840764
0
VERTEX
8
kedersystem
10
-189.911341
20
59.530996
30
16.059721
0
VERTEX
8
kedersystem
10
-191.682601
20
58.896776
30
16.425889
0
SEQEND
0
POLYLINE
8
kedersystem
62
0
66
1
70
9
0
VERTEX
8
kedersystem
10
-193.288465
20
57.598821
30
16.654753
0
VERTEX
8
kedersystem
10
-192.707774
20
57.111563
30
-11.139979
0
VERTEX
8
kedersystem
10
-191.396711
20
58.218520
30
-10.944792
0
VERTEX
8
kedersystem
10
-191.770024
20
58.865116
30
16.431471
0
SEQEND
0
POLYLINE
8
kedersystem
62
0
66
1
70
9
0
VERTEX
8
kedersystem
10
-194.285299
20
55.888454
30
16.956337
0
VERTEX
8
kedersystem
10
-193.558525
20
55.623930
30
-11.402289
0
VERTEX
8
kedersystem
10
-192.707774
20
57.111563
30
-11.139979
0
VERTEX
8
kedersystem
10
-193.288465
20
57.598821
30
16.654753
0
SEQEND
0
POLYLINE
8
kedersystem
62
0
66
1
70
9
0
VERTEX
8
kedersystem
10
-194.638690
20
53.937484
30
17.300346
0
VERTEX
8
kedersystem
10
-193.847781
20
53.937484
30
-11.699654
0
VERTEX
8
kedersystem
10
-193.558525
20
55.623930
30
-11.402289
0
VERTEX
8
kedersystem
10
-194.285299
20
55.888454
30
16.956337
0
SEQEND
0
POLYLINE
8
kedersystem
62
0
66
1
70
9
0
VERTEX
8
kedersystem
10
-194.285299
20
51.986514
30
16.956337
0
VERTEX
8
kedersystem
10
-193.558525
20
52.251038
30
-11.402289
0
VERTEX
8
kedersystem
10
-193.847781
20
53.937484
30
-11.699654
0
VERTEX
8
kedersystem
10
-194.638690
20
53.937484
30
17.300346
0
SEQEND
0
POLYLINE
8
kedersystem
62
0
66
1
70
9
0
VERTEX
8
kedersystem
10
-193.288465
20
50.276147
30
16.654753
0
VERTEX
8
kedersystem
10
-192.707774
20
50.763404
30
-11.139979
0
VERTEX
8
kedersystem
10
-193.558525
20
52.251038
30
-11.402289
0
VERTEX
8
kedersystem
10
-194.285299
20
51.986514
30
16.956337
0
SEQEND
0
POLYLINE
8
kedersystem
62
0
66
1
70
9
0
VERTEX
8
kedersystem
10
-191.770024
20
49.009851
30
16.431471
0
VERTEX
8
kedersystem
10
-191.396711
20
49.656448
30
-10.944792
0
VERTEX
8
kedersystem
10
-192.707774
20
50.763404
30
-11.139979
0
VERTEX
8
kedersystem
10
-193.288465
20
50.276147
30
16.654753
0
SEQEND
0
POLYLINE
8
kedersystem
62
0
66
1
70
9
0
VERTEX
8
kedersystem
10
-189.911341
20
48.343972
30
16.059721
0
VERTEX
8
kedersystem
10
-189.783944
20
49.066475
30
-10.840764
0
VERTEX
8
kedersystem
10
-191.396711
20
49.656448
30
-10.944792
0
VERTEX
8
kedersystem
10
-191.770024
20
49.009851
30
16.431471
0
VERTEX
8
kedersystem
10
-191.682601
20
48.978192
30
16.425889
0
SEQEND
0
POLYLINE
8
kedersystem
62
0
66
1
70
9
0
VERTEX
8
kedersystem
10
-187.938767
20
48.343972
30
16.059721
0
VERTEX
8
kedersystem
10
-188.066163
20
49.066475
30
-10.840764
0
VERTEX
8
kedersystem
10
-189.783944
20
49.066475
30
-10.840764
0
VERTEX
8
kedersystem
10
-189.911341
20
48.343972
30
16.059721
0
SEQEND
0
POLYLINE
8
kedersystem
62
0
66
1
70
9
0
VERTEX
8
kedersystem
10
-186.080084
20
49.009851
30
16.431471
0
VERTEX
8
kedersystem
10
-186.453396
20
49.656448
30
-10.944792
0
VERTEX
8
kedersystem
10
-188.066163
20
49.066475
30
-10.840764
0
VERTEX
8
kedersystem
10
-187.938767
20
48.343972
30
16.059721
0
VERTEX
8
kedersystem
10
-186.167506
20
48.978192
30
16.425889
0
SEQEND
0
POLYLINE
8
kedersystem
62
0
66
1
70
9
0
VERTEX
8
kedersystem
10
-184.561642
20
50.276147
30
16.654753
0
VERTEX
8
kedersystem
10
-185.142333
20
50.763404
30
-11.139979
0
VERTEX
8
kedersystem
10
-186.453396
20
49.656448
30
-10.944792
0
VERTEX
8
kedersystem
10
-186.080084
20
49.009851
30
16.431471
0
SEQEND
0
POLYLINE
8
kedersystem
62
0
66
1
70
9
0
VERTEX
8
kedersystem
10
-183.564808
20
51.986514
30
16.956337
0
VERTEX
8
kedersystem
10
-184.291582
20
52.251038
30
-11.402289
0
VERTEX
8
kedersystem
10
-185.142333
20
50.763404
30
-11.139979
0
VERTEX
8
kedersystem
10
-184.561642
20
50.276147
30
16.654753
0
SEQEND
0
POLYLINE
8
kedersystem
62
0
66
1
70
9
0
VERTEX
8
kedersystem
10
-183.211417
20
53.937484
30
17.300346
0
VERTEX
8
kedersystem
10
-184.002326
20
53.937484
30
-11.699654
0
VERTEX
8
kedersystem
10
-184.291582
20
52.251038
30
-11.402289
0
VERTEX
8
kedersystem
10
-183.564808
20
51.986514
30
16.956337
0
SEQEND
0
POLYLINE
8
kedersystem
62
0
66
1
70
9
0
VERTEX
8
kedersystem
10
-196.925054
20
58.896776
30
-10.825197
0
VERTEX
8
kedersystem
10
-196.925054
20
63.257904
30
-8.307299
0
VERTEX
8
kedersystem
10
-180.925054
20
63.257904
30
-8.307299
0
VERTEX
8
kedersystem
10
-180.925054
20
58.896776
30
-10.825197
0
SEQEND
0
POLYLINE
8
kedersystem
62
0
66
1
70
9
0
VERTEX
8
kedersystem
10
-196.925054
20
63.257904
30
-8.307299
0
VERTEX
8
kedersystem
10
-196.925054
20
66.494852
30
-4.449654
0
VERTEX
8
kedersystem
10
-180.925054
20
66.494852
30
-4.449654
0
VERTEX
8
kedersystem
10
-180.925054
20
63.257904
30
-8.307299
0
SEQEND
0
POLYLINE
8
kedersystem
62
0
66
1
70
9
0
VERTEX
8
kedersystem
10
-196.925054
20
66.494852
30
-4.449654
0
VERTEX
8
kedersystem
10
-196.925054
20
68.217196
30
0.282447
0
VERTEX
8
kedersystem
10
-180.925054
20
68.217196
30
0.282447
0
VERTEX
8
kedersystem
10
-180.925054
20
66.494852
30
-4.449654
0
SEQEND
0
POLYLINE
8
kedersystem
62
0
66
1
70
9
0
VERTEX
8
kedersystem
10
-196.925054
20
68.217196
30
0.282447
0
VERTEX
8
kedersystem
10
-196.925054
20
68.217196
30
5.318244
0
VERTEX
8
kedersystem
10
-180.925054
20
68.217196
30
5.318244
0
VERTEX
8
kedersystem
10
-180.925054
20
68.217196
30
0.282447
0
SEQEND
0
POLYLINE
8
kedersystem
62
0
66
1
70
9
0
VERTEX
8
kedersystem
10
-196.925054
20
68.217196
30
5.318244
0
VERTEX
8
kedersystem
10
-196.925054
20
66.494852
30
10.050346
0
VERTEX
8
kedersystem
10
-180.925054
20
66.494852
30
10.050346
0
VERTEX
8
kedersystem
10
-180.925054
20
68.217196
30
5.318244
0
SEQEND
0
POLYLINE
8
kedersystem
62
0
66
1
70
9
0
VERTEX
8
kedersystem
10
-196.925054
20
66.494852
30
10.050346
0
VERTEX
8
kedersystem
10
-196.925054
20
63.257904
30
13.907990
0
VERTEX
8
kedersystem
10
-180.925054
20
63.257904
30
13.907990
0
VERTEX
8
kedersystem
10
-180.925054
20
66.494852
30
10.050346
0
SEQEND
0
POLYLINE
8
kedersystem
62
0
66
1
70
9
0
VERTEX
8
kedersystem
10
-196.925054
20
44.617064
30
13.907990
0
VERTEX
8
kedersystem
10
-196.925054
20
41.380115
30
10.050346
0
VERTEX
8
kedersystem
10
-180.925054
20
41.380115
30
10.050346
0
VERTEX
8
kedersystem
10
-180.925054
20
44.617064
30
13.907990
0
SEQEND
0
POLYLINE
8
kedersystem
62
0
66
1
70
9
0
VERTEX
8
kedersystem
10
-196.925054
20
41.380115
30
10.050346
0
VERTEX
8
kedersystem
10
-196.925054
20
39.657771
30
5.318244
0
VERTEX
8
kedersystem
10
-180.925054
20
39.657771
30
5.318244
0
VERTEX
8
kedersystem
10
-180.925054
20
41.380115
30
10.050346
0
SEQEND
0
POLYLINE
8
kedersystem
62
0
66
1
70
9
0
VERTEX
8
kedersystem
10
-196.925054
20
39.657771
30
5.318244
0
VERTEX
8
kedersystem
10
-196.925054
20
39.657771
30
0.282447
0
VERTEX
8
kedersystem
10
-180.925054
20
39.657771
30
0.282447
0
VERTEX
8
kedersystem
10
-180.925054
20
39.657771
30
5.318244
0
SEQEND
0
POLYLINE
8
kedersystem
62
0
66
1
70
9
0
VERTEX
8
kedersystem
10
-196.925054
20
39.657771
30
0.282447
0
VERTEX
8
kedersystem
10
-196.925054
20
41.380115
30
-4.449654
0
VERTEX
8
kedersystem
10
-180.925054
20
41.380115
30
-4.449654
0
VERTEX
8
kedersystem
10
-180.925054
20
39.657771
30
0.282447
0
SEQEND
0
POLYLINE
8
kedersystem
62
0
66
1
70
9
0
VERTEX
8
kedersystem
10
-196.925054
20
41.380115
30
-4.449654
0
VERTEX
8
kedersystem
10
-196.925054
20
44.617064
30
-8.307299
0
VERTEX
8
kedersystem
10
-180.925054
20
44.617064
30
-8.307299
0
VERTEX
8
kedersystem
10
-180.925054
20
41.380115
30
-4.449654
0
SEQEND
0
POLYLINE
8
kedersystem
62
0
66
1
70
9
0
VERTEX
8
kedersystem
10
-196.925054
20
44.617064
30
-8.307299
0
VERTEX
8
kedersystem
10
-196.925054
20
48.978192
30
-10.825197
0
VERTEX
8
kedersystem
10
-180.925054
20
48.978192
30
-10.825197
0
VERTEX
8
kedersystem
10
-180.925054
20
44.617064
30
-8.307299
0
SEQEND
0
POLYLINE
8
kedersystem
62
0
66
1
70
9
0
VERTEX
8
kedersystem
10
-180.925054
20
53.937484
30
-11.699654
0
VERTEX
8
kedersystem
10
-180.925054
20
58.896776
30
-10.825197
0
VERTEX
8
kedersystem
10
-165.925054
20
59.922836
30
-13.644275
0
VERTEX
8
kedersystem
10
-165.925054
20
53.937484
30
-14.699654
0
SEQEND
0
POLYLINE
8
kedersystem
62
0
66
1
70
9
0
VERTEX
8
kedersystem
10
-180.925054
20
58.896776
30
-10.825197
0
VERTEX
8
kedersystem
10
-180.925054
20
63.257904
30
-8.307299
0
VERTEX
8
kedersystem
10
-165.925054
20
65.186267
30
-10.605432
0
VERTEX
8
kedersystem
10
-165.925054
20
59.922836
30
-13.644275
0
SEQEND
0
POLYLINE
8
kedersystem
62
0
66
1
70
9
0
VERTEX
8
kedersystem
10
-180.925054
20
63.257904
30
-8.307299
0
VERTEX
8
kedersystem
10
-180.925054
20
66.494852
30
-4.449654
0
VERTEX
8
kedersystem
10
-165.925054
20
69.092928
30
-5.949654
0
VERTEX
8
kedersystem
10
-165.925054
20
65.186267
30
-10.605432
0
SEQEND
0
POLYLINE
8
kedersystem
62
0
66
1
70
9
0
VERTEX
8
kedersystem
10
-180.925054
20
66.494852
30
-4.449654
0
VERTEX
8
kedersystem
10
-180.925054
20
68.217196
30
0.282447
0
VERTEX
8
kedersystem
10
-165.925054
20
71.171620
30
-0.238498
0
VERTEX
8
kedersystem
10
-165.925054
20
69.092928
30
-5.949654
0
SEQEND
0
POLYLINE
8
kedersystem
62
0
66
1
70
9
0
VERTEX
8
kedersystem
10
-180.925054
20
68.217196
30
0.282447
0
VERTEX
8
kedersystem
10
-180.925054
20
68.217196
30
5.318244
0
VERTEX
8
kedersystem
10
-165.925054
20
71.171620
30
5.839189
0
VERTEX
8
kedersystem
10
-165.925054
20
71.171620
30
-0.238498
0
SEQEND
0
POLYLINE
8
kedersystem
62
0
66
1
70
9
0
VERTEX
8
kedersystem
10
-180.925054
20
68.217196
30
5.318244
0
VERTEX
8
kedersystem
10
-180.925054
20
66.494852
30
10.050346
0
VERTEX
8
kedersystem
10
-165.925054
20
69.092928
30
11.550346
0
VERTEX
8
kedersystem
10
-165.925054
20
71.171620
30
5.839189
0
SEQEND
0
POLYLINE
8
kedersystem
62
0
66
1
70
9
0
VERTEX
8
kedersystem
10
-180.925054
20
66.494852
30
10.050346
0
VERTEX
8
kedersystem
10
-180.925054
20
63.257904
30
13.907990
0
VERTEX
8
kedersystem
10
-165.925054
20
65.186267
30
16.206123
0
VERTEX
8
kedersystem
10
-165.925054
20
69.092928
30
11.550346
0
SEQEND
0
POLYLINE
8
kedersystem
62
0
66
1
70
9
0
VERTEX
8
kedersystem
10
-180.925054
20
63.257904
30
13.907990
0
VERTEX
8
kedersystem
10
-180.925054
20
58.896776
30
16.425889
0
VERTEX
8
kedersystem
10
-165.925054
20
59.922836
30
19.244966
0
VERTEX
8
kedersystem
10
-165.925054
20
65.186267
30
16.206123
0
SEQEND
0
POLYLINE
8
kedersystem
62
0
66
1
70
9
0
VERTEX
8
kedersystem
10
-180.925054
20
58.896776
30
16.425889
0
VERTEX
8
kedersystem
10
-180.925054
20
53.937484
30
17.300346
0
VERTEX
8
kedersystem
10
-165.925054
20
53.937484
30
20.300346
0
VERTEX
8
kedersystem
10
-165.925054
20
59.922836
30
19.244966
0
SEQEND
0
POLYLINE
8
kedersystem
62
0
66
1
70
9
0
VERTEX
8
kedersystem
10
-180.925054
20
53.937484
30
17.300346
0
VERTEX
8
kedersystem
10
-180.925054
20
48.978192
30
16.425889
0
VERTEX
8
kedersystem
10
-165.925054
20
47.952131
30
19.244966
0
VERTEX
8
kedersystem
10
-165.925054
20
53.937484
30
20.300346
0
SEQEND
0
POLYLINE
8
kedersystem
62
0
66
1
70
9
0
VERTEX
8
kedersystem
10
-180.925054
20
48.978192
30
16.425889
0
VERTEX
8
kedersystem
10
-180.925054
20
44.617064
30
13.907990
0
VERTEX
8
kedersystem
10
-165.925054
20
42.688701
30
16.206123
0
VERTEX
8
kedersystem
10
-165.925054
20
47.952131
30
19.244966
0
SEQEND
0
POLYLINE
8
kedersystem
62
0
66
1
70
9
0
VERTEX
8
kedersystem
10
-180.925054
20
44.617064
30
13.907990
0
VERTEX
8
kedersystem
10
-180.925054
20
41.380115
30
10.050346
0
VERTEX
8
kedersystem
10
-165.925054
20
38.782039
30
11.550346
0
VERTEX
8
kedersystem
10
-165.925054
20
42.688701
30
16.206123
0
SEQEND
0
POLYLINE
8
kedersystem
62
0
66
1
70
9
0
VERTEX
8
kedersystem
10
-180.925054
20
41.380115
30
10.050346
0
VERTEX
8
kedersystem
10
-180.925054
20
39.657771
30
5.318244
0
VERTEX
8
kedersystem
10
-165.925054
20
36.703348
30
5.839189
0
VERTEX
8
kedersystem
10
-165.925054
20
38.782039
30
11.550346
0
SEQEND
0
POLYLINE
8
kedersystem
62
0
66
1
70
9
0
VERTEX
8
kedersystem
10
-180.925054
20
39.657771
30
5.318244
0
VERTEX
8
kedersystem
10
-180.925054
20
39.657771
30
0.282447
0
VERTEX
8
kedersystem
10
-165.925054
20
36.703348
30
-0.238498
0
VERTEX
8
kedersystem
10
-165.925054
20
36.703348
30
5.839189
0
SEQEND
0
POLYLINE
8
kedersystem
62
0
66
1
70
9
0
VERTEX
8
kedersystem
10
-180.925054
20
39.657771
30
0.282447
0
VERTEX
8
kedersystem
10
-180.925054
20
41.380115
30
-4.449654
0
VERTEX
8
kedersystem
10
-165.925054
20
38.782039
30
-5.949654
0
VERTEX
8
kedersystem
10
-165.925054
20
36.703348
30
-0.238498
0
SEQEND
0
POLYLINE
8
kedersystem
62
0
66
1
70
9
0
VERTEX
8
kedersystem
10
-180.925054
20
41.380115
30
-4.449654
0
VERTEX
8
kedersystem
10
-180.925054
20
44.617064
30
-8.307299
0
VERTEX
8
kedersystem
10
-165.925054
20
42.688701
30
-10.605432
0
VERTEX
8
kedersystem
10
-165.925054
20
38.782039
30
-5.949654
0
SEQEND
0
POLYLINE
8
kedersystem
62
0
66
1
70
9
0
VERTEX
8
kedersystem
10
-180.925054
20
44.617064
30
-8.307299
0
VERTEX
8
kedersystem
10
-180.925054
20
48.978192
30
-10.825197
0
VERTEX
8
kedersystem
10
-165.925054
20
47.952131
30
-13.644275
0
VERTEX
8
kedersystem
10
-165.925054
20
42.688701
30
-10.605432
0
SEQEND
0
POLYLINE
8
kedersystem
62
0
66
1
70
9
0
VERTEX
8
kedersystem
10
-180.925054
20
48.978192
30
-10.825197
0
VERTEX
8
kedersystem
10
-180.925054
20
53.937484
30
-11.699654
0
VERTEX
8
kedersystem
10
-165.925054
20
53.937484
30
-14.699654
0
VERTEX
8
kedersystem
10
-165.925054
20
47.952131
30
-13.644275
0
SEQEND
0
POLYLINE
8
kedersystem
62
0
66
1
70
9
0
VERTEX
8
kedersystem
10
-205.141984
20
53.937484
30
-9.873670
0
VERTEX
8
kedersystem
10
-205.141984
20
58.272252
30
-9.109333
0
VERTEX
8
kedersystem
10
-196.925054
20
58.896776
30
-10.825197
0
VERTEX
8
kedersystem
10
-196.925054
20
53.937484
30
-11.699654
0
SEQEND
0
POLYLINE
8
kedersystem
62
0
66
1
70
9
0
VERTEX
8
kedersystem
10
-205.141984
20
58.272252
30
-9.109333
0
VERTEX
8
kedersystem
10
-205.141984
20
62.084184
30
-6.908514
0
VERTEX
8
kedersystem
10
-196.925054
20
63.257904
30
-8.307299
0
VERTEX
8
kedersystem
10
-196.925054
20
58.896776
30
-10.825197
0
SEQEND
0
POLYLINE
8
kedersystem
62
0
66
1
70
9
0
VERTEX
8
kedersystem
10
-205.141984
20
62.084184
30
-6.908514
0
VERTEX
8
kedersystem
10
-205.141984
20
64.913503
30
-3.536662
0
VERTEX
8
kedersystem
10
-196.925054
20
66.494852
30
-4.449654
0
VERTEX
8
kedersystem
10
-196.925054
20
63.257904
30
-8.307299
0
SEQEND
0
POLYLINE
8
kedersystem
62
0
66
1
70
9
0
VERTEX
8
kedersystem
10
-205.141984
20
64.913503
30
-3.536662
0
VERTEX
8
kedersystem
10
-205.141984
20
66.418953
30
0.599526
0
VERTEX
8
kedersystem
10
-196.925054
20
68.217196
30
0.282447
0
VERTEX
8
kedersystem
10
-196.925054
20
66.494852
30
-4.449654
0
SEQEND
0
POLYLINE
8
kedersystem
62
0
66
1
70
9
0
VERTEX
8
kedersystem
10
-205.141984
20
66.418953
30
0.599526
0
VERTEX
8
kedersystem
10
-205.141984
20
66.418953
30
5.001165
0
VERTEX
8
kedersystem
10
-196.925054
20
68.217196
30
5.318244
0
VERTEX
8
kedersystem
10
-196.925054
20
68.217196
30
0.282447
0
SEQEND
0
POLYLINE
8
kedersystem
62
0
66
1
70
9
0
VERTEX
8
kedersystem
10
-205.141984
20
66.418953
30
5.001165
0
VERTEX
8
kedersystem
10
-205.141984
20
64.913503
30
9.137353
0
VERTEX
8
kedersystem
10
-196.925054
20
66.494852
30
10.050346
0
VERTEX
8
kedersystem
10
-196.925054
20
68.217196
30
5.318244
0
SEQEND
0
POLYLINE
8
kedersystem
62
0
66
1
70
9
0
VERTEX
8
kedersystem
10
-205.141984
20
64.913503
30
9.137353
0
VERTEX
8
kedersystem
10
-205.141984
20
62.084184
30
12.509205
0
VERTEX
8
kedersystem
10
-196.925054
20
63.257904
30
13.907990
0
VERTEX
8
kedersystem
10
-196.925054
20
66.494852
30
10.050346
0
SEQEND
0
POLYLINE
8
kedersystem
62
0
66
1
70
9
0
VERTEX
8
kedersystem
10
-205.141984
20
62.084184
30
12.509205
0
VERTEX
8
kedersystem
10
-205.141984
20
58.272252
30
14.710024
0
VERTEX
8
kedersystem
10
-196.925054
20
58.896776
30
16.425889
0
VERTEX
8
kedersystem
10
-196.925054
20
63.257904
30
13.907990
0
SEQEND
0
POLYLINE
8
kedersystem
62
0
66
1
70
9
0
VERTEX
8
kedersystem
10
-205.141984
20
58.272252
30
14.710024
0
VERTEX
8
kedersystem
10
-205.141984
20
53.937484
30
15.474361
0
VERTEX
8
kedersystem
10
-196.925054
20
53.937484
30
17.300346
0
VERTEX
8
kedersystem
10
-196.925054
20
58.896776
30
16.425889
0
SEQEND
0
POLYLINE
8
kedersystem
62
0
66
1
70
9
0
VERTEX
8
kedersystem
10
-205.141984
20
53.937484
30
15.474361
0
VERTEX
8
kedersystem
10
-205.141984
20
49.602715
30
14.710024
0
VERTEX
8
kedersystem
10
-196.925054
20
48.978192
30
16.425889
0
VERTEX
8
kedersystem
10
-196.925054
20
53.937484
30
17.300346
0
SEQEND
0
POLYLINE
8
kedersystem
62
0
66
1
70
9
0
VERTEX
8
kedersystem
10
-205.141984
20
49.602715
30
14.710024
0
VERTEX
8
kedersystem
10
-205.141984
20
45.790784
30
12.509205
0
VERTEX
8
kedersystem
10
-196.925054
20
44.617064
30
13.907990
0
VERTEX
8
kedersystem
10
-196.925054
20
48.978192
30
16.425889
0
SEQEND
0
POLYLINE
8
kedersystem
62
0
66
1
70
9
0
VERTEX
8
kedersystem
10
-205.141984
20
45.790784
30
12.509205
0
VERTEX
8
kedersystem
10
-205.141984
20
42.961465
30
9.137353
0
VERTEX
8
kedersystem
10
-196.925054
20
41.380115
30
10.050346
0
VERTEX
8
kedersystem
10
-196.925054
20
44.617064
30
13.907990
0
SEQEND
0
POLYLINE
8
kedersystem
62
0
66
1
70
9
0
VERTEX
8
kedersystem
10
-205.141984
20
42.961465
30
9.137353
0
VERTEX
8
kedersystem
10
-205.141984
20
41.456015
30
5.001165
0
VERTEX
8
kedersystem
10
-196.925054
20
39.657771
30
5.318244
0
VERTEX
8
kedersystem
10
-196.925054
20
41.380115
30
10.050346
0
SEQEND
0
POLYLINE
8
kedersystem
62
0
66
1
70
9
0
VERTEX
8
kedersystem
10
-205.141984
20
41.456015
30
5.001165
0
VERTEX
8
kedersystem
10
-205.141984
20
41.456015
30
0.599526
0
VERTEX
8
kedersystem
10
-196.925054
20
39.657771
30
0.282447
0
VERTEX
8
kedersystem
10
-196.925054
20
39.657771
30
5.318244
0
SEQEND
0
POLYLINE
8
kedersystem
62
0
66
1
70
9
0
VERTEX
8
kedersystem
10
-205.141984
20
41.456015
30
0.599526
0
VERTEX
8
kedersystem
10
-205.141984
20
42.961465
30
-3.536662
0
VERTEX
8
kedersystem
10
-196.925054
20
41.380115
30
-4.449654
0
VERTEX
8
kedersystem
10
-196.925054
20
39.657771
30
0.282447
0
SEQEND
0
POLYLINE
8
kedersystem
62
0
66
1
70
9
0
VERTEX
8
kedersystem
10
-205.141984
20
42.961465
30
-3.536662
0
VERTEX
8
kedersystem
10
-205.141984
20
45.790784
30
-6.908514
0
VERTEX
8
kedersystem
10
-196.925054
20
44.617064
30
-8.307299
0
VERTEX
8
kedersystem
10
-196.925054
20
41.380115
30
-4.449654
0
SEQEND
0
POLYLINE
8
kedersystem
62
0
66
1
70
9
0
VERTEX
8
kedersystem
10
-205.141984
20
45.790784
30
-6.908514
0
VERTEX
8
kedersystem
10
-205.141984
20
49.602715
30
-9.109333
0
VERTEX
8
kedersystem
10
-196.925054
20
48.978192
30
-10.825197
0
VERTEX
8
kedersystem
10
-196.925054
20
44.617064
30
-8.307299
0
SEQEND
0
POLYLINE
8
kedersystem
62
0
66
1
70
9
0
VERTEX
8
kedersystem
10
-205.141984
20
49.602715
30
-9.109333
0
VERTEX
8
kedersystem
10
-205.141984
20
53.937484
30
-9.873670
0
VERTEX
8
kedersystem
10
-196.925054
20
53.937484
30
-11.699654
0
VERTEX
8
kedersystem
10
-196.925054
20
48.978192
30
-10.825197
0
SEQEND
0
POLYLINE
8
kedersystem
62
0
66
1
70
9
0
VERTEX
8
kedersystem
10
-205.925054
20
53.937484
30
-8.897483
0
VERTEX
8
kedersystem
10
-205.925054
20
49.936591
30
-8.192017
0
VERTEX
8
kedersystem
10
-205.925054
20
46.418265
30
-6.160711
0
VERTEX
8
kedersystem
10
-205.925054
20
43.806867
30
-3.048569
0
VERTEX
8
kedersystem
10
-205.925054
20
42.417372
30
0.769039
0
VERTEX
8
kedersystem
10
-205.925054
20
42.417372
30
4.831652
0
VERTEX
8
kedersystem
10
-205.925054
20
43.806867
30
8.649260
0
VERTEX
8
kedersystem
10
-205.925054
20
46.418265
30
11.761402
0
VERTEX
8
kedersystem
10
-205.925054
20
49.936591
30
13.792709
0
VERTEX
8
kedersystem
10
-205.925054
20
53.937484
30
14.498174
0
VERTEX
8
kedersystem
10
-205.925054
20
57.938377
30
13.792709
0
VERTEX
8
kedersystem
10
-205.925054
20
61.456703
30
11.761402
0
VERTEX
8
kedersystem
10
-205.925054
20
64.068100
30
8.649260
0
VERTEX
8
kedersystem
10
-205.925054
20
65.457596
30
4.831652
0
VERTEX
8
kedersystem
10
-205.925054
20
65.457596
30
0.769039
0
VERTEX
8
kedersystem
10
-205.925054
20
64.068100
30
-3.048569
0
VERTEX
8
kedersystem
10
-205.925054
20
61.456703
30
-6.160711
0
VERTEX
8
kedersystem
10
-205.925054
20
57.938377
30
-8.192017
0
SEQEND
0
POLYLINE
8
kedersystem
62
0
66
1
70
9
0
VERTEX
8
kedersystem
10
-205.868463
20
61.669871
30
-6.414755
0
VERTEX
8
kedersystem
10
-205.868463
20
58.051801
30
-8.503649
0
VERTEX
8
kedersystem
10
-205.925054
20
57.938377
30
-8.192017
0
VERTEX
8
kedersystem
10
-205.925054
20
61.456703
30
-6.160711
0
SEQEND
0
POLYLINE
8
kedersystem
62
0
66
1
70
9
0
VERTEX
8
kedersystem
10
-205.141984
20
62.084184
30
-6.908514
0
VERTEX
8
kedersystem
10
-205.141984
20
58.272252
30
-9.109333
0
VERTEX
8
kedersystem
10
-205.453442
20
58.228753
30
-8.989819
0
VERTEX
8
kedersystem
10
-205.453442
20
62.002432
30
-6.811085
0
SEQEND
0
POLYLINE
8
kedersystem
62
0
66
1
70
9
0
VERTEX
8
kedersystem
10
-205.868463
20
58.051801
30
-8.503649
0
VERTEX
8
kedersystem
10
-205.868463
20
53.937484
30
-9.229114
0
VERTEX
8
kedersystem
10
-205.925054
20
53.937484
30
-8.897483
0
VERTEX
8
kedersystem
10
-205.925054
20
57.938377
30
-8.192017
0
SEQEND
0
POLYLINE
8
kedersystem
62
0
66
1
70
9
0
VERTEX
8
kedersystem
10
-205.141984
20
58.272252
30
-9.109333
0
VERTEX
8
kedersystem
10
-205.141984
20
53.937484
30
-9.873670
0
VERTEX
8
kedersystem
10
-205.453442
20
53.937484
30
-9.746486
0
VERTEX
8
kedersystem
10
-205.453442
20
58.228753
30
-8.989819
0
SEQEND
0
POLYLINE
8
kedersystem
62
0
66
1
70
9
0
VERTEX
8
kedersystem
10
-205.868463
20
53.937484
30
-9.229114
0
VERTEX
8
kedersystem
10
-205.868463
20
49.823166
30
-8.503649
0
VERTEX
8
kedersystem
10
-205.925054
20
49.936591
30
-8.192017
0
VERTEX
8
kedersystem
10
-205.925054
20
53.937484
30
-8.897483
0
SEQEND
0
POLYLINE
8
kedersystem
62
0
66
1
70
9
0
VERTEX
8
kedersystem
10
-205.141984
20
53.937484
30
-9.873670
0
VERTEX
8
kedersystem
10
-205.141984
20
49.602715
30
-9.109333
0
VERTEX
8
kedersystem
10
-205.453442
20
49.646215
30
-8.989819
0
VERTEX
8
kedersystem
10
-205.453442
20
53.937484
30
-9.746486
0
SEQEND
0
POLYLINE
8
kedersystem
62
0
66
1
70
9
0
VERTEX
8
kedersystem
10
-205.868463
20
49.823166
30
-8.503649
0
VERTEX
8
kedersystem
10
-205.868463
20
46.205096
30
-6.414755
0
VERTEX
8
kedersystem
10
-205.925054
20
46.418265
30
-6.160711
0
VERTEX
8
kedersystem
10
-205.925054
20
49.936591
30
-8.192017
0
SEQEND
0
POLYLINE
8
kedersystem
62
0
66
1
70
9
0
VERTEX
8
kedersystem
10
-205.141984
20
49.602715
30
-9.109333
0
VERTEX
8
kedersystem
10
-205.141984
20
45.790784
30
-6.908514
0
VERTEX
8
kedersystem
10
-205.453442
20
45.872536
30
-6.811085
0
VERTEX
8
kedersystem
10
-205.453442
20
49.646215
30
-8.989819
0
SEQEND
0
POLYLINE
8
kedersystem
62
0
66
1
70
9
0
VERTEX
8
kedersystem
10
-205.868463
20
46.205096
30
-6.414755
0
VERTEX
8
kedersystem
10
-205.868463
20
43.519666
30
-3.214384
0
VERTEX
8
kedersystem
10
-205.925054
20
43.806867
30
-3.048569
0
VERTEX
8
kedersystem
10
-205.925054
20
46.418265
30
-6.160711
0
SEQEND
0
POLYLINE
8
kedersystem
62
0
66
1
70
9
0
VERTEX
8
kedersystem
10
-205.141984
20
45.790784
30
-6.908514
0
VERTEX
8
kedersystem
10
-205.141984
20
42.961465
30
-3.536662
0
VERTEX
8
kedersystem
10
-205.453442
20
43.071609
30
-3.473070
0
VERTEX
8
kedersystem
10
-205.453442
20
45.872536
30
-6.811085
0
SEQEND
0
POLYLINE
8
kedersystem
62
0
66
1
70
9
0
VERTEX
8
kedersystem
10
-205.868463
20
43.519666
30
-3.214384
0
VERTEX
8
kedersystem
10
-205.868463
20
42.090779
30
0.711452
0
VERTEX
8
kedersystem
10
-205.925054
20
42.417372
30
0.769039
0
VERTEX
8
kedersystem
10
-205.925054
20
43.806867
30
-3.048569
0
SEQEND
0
POLYLINE
8
kedersystem
62
0
66
1
70
9
0
VERTEX
8
kedersystem
10
-205.141984
20
42.961465
30
-3.536662
0
VERTEX
8
kedersystem
10
-205.141984
20
41.456015
30
0.599526
0
VERTEX
8
kedersystem
10
-205.453442
20
41.581267
30
0.621611
0
VERTEX
8
kedersystem
10
-205.453442
20
43.071609
30
-3.473070
0
SEQEND
0
POLYLINE
8
kedersystem
62
0
66
1
70
9
0
VERTEX
8
kedersystem
10
-205.868463
20
42.090779
30
0.711452
0
VERTEX
8
kedersystem
10
-205.868463
20
42.090779
30
4.889239
0
VERTEX
8
kedersystem
10
-205.925054
20
42.417372
30
4.831652
0
VERTEX
8
kedersystem
10
-205.925054
20
42.417372
30
0.769039
0
SEQEND
0
POLYLINE
8
kedersystem
62
0
66
1
70
9
0
VERTEX
8
kedersystem
10
-205.141984
20
41.456015
30
0.599526
0
VERTEX
8
kedersystem
10
-205.141984
20
41.456015
30
5.001165
0
VERTEX
8
kedersystem
10
-205.453442
20
41.581267
30
4.979080
0
VERTEX
8
kedersystem
10
-205.453442
20
41.581267
30
0.621611
0
SEQEND
0
POLYLINE
8
kedersystem
62
0
66
1
70
9
0
VERTEX
8
kedersystem
10
-205.868463
20
42.090779
30
4.889239
0
VERTEX
8
kedersystem
10
-205.868463
20
43.519666
30
8.815075
0
VERTEX
8
kedersystem
10
-205.925054
20
43.806867
30
8.649260
0
VERTEX
8
kedersystem
10
-205.925054
20
42.417372
30
4.831652
0
SEQEND
0
POLYLINE
8
kedersystem
62
0
66
1
70
9
0
VERTEX
8
kedersystem
10
-205.141984
20
41.456015
30
5.001165
0
VERTEX
8
kedersystem
10
-205.141984
20
42.961465
30
9.137353
0
VERTEX
8
kedersystem
10
-205.453442
20
43.071609
30
9.073761
0
VERTEX
8
kedersystem
10
-205.453442
20
41.581267
30
4.979080
0
SEQEND
0
POLYLINE
8
kedersystem
62
0
66
1
70
9
0
VERTEX
8
kedersystem
10
-205.868463
20
43.519666
30
8.815075
0
VERTEX
8
kedersystem
10
-205.868463
20
46.205096
30
12.015446
0
VERTEX
8
kedersystem
10
-205.925054
20
46.418265
30
11.761402
0
VERTEX
8
kedersystem
10
-205.925054
20
43.806867
30
8.649260
0
SEQEND
0
POLYLINE
8
kedersystem
62
0
66
1
70
9
0
VERTEX
8
kedersystem
10
-205.141984
20
42.961465
30
9.137353
0
VERTEX
8
kedersystem
10
-205.141984
20
45.790784
30
12.509205
0
VERTEX
8
kedersystem
10
-205.453442
20
45.872536
30
12.411776
0
VERTEX
8
kedersystem
10
-205.453442
20
43.071609
30
9.073761
0
SEQEND
0
POLYLINE
8
kedersystem
62
0
66
1
70
9
0
VERTEX
8
kedersystem
10
-205.868463
20
46.205096
30
12.015446
0
VERTEX
8
kedersystem
10
-205.868463
20
49.823166
30
14.104340
0
VERTEX
8
kedersystem
10
-205.925054
20
49.936591
30
13.792709
0
VERTEX
8
kedersystem
10
-205.925054
20
46.418265
30
11.761402
0
SEQEND
0
POLYLINE
8
kedersystem
62
0
66
1
70
9
0
VERTEX
8
kedersystem
10
-205.141984
20
45.790784
30
12.509205
0
VERTEX
8
kedersystem
10
-205.141984
20
49.602715
30
14.710024
0
VERTEX
8
kedersystem
10
-205.453442
20
49.646215
30
14.590510
0
VERTEX
8
kedersystem
10
-205.453442
20
45.872536
30
12.411776
0
SEQEND
0
POLYLINE
8
kedersystem
62
0
66
1
70
9
0
VERTEX
8
kedersystem
10
-205.868463
20
49.823166
30
14.104340
0
VERTEX
8
kedersystem
10
-205.868463
20
53.937484
30
14.829805
0
VERTEX
8
kedersystem
10
-205.925054
20
53.937484
30
14.498174
0
VERTEX
8
kedersystem
10
-205.925054
20
49.936591
30
13.792709
0
SEQEND
0
POLYLINE
8
kedersystem
62
0
66
1
70
9
0
VERTEX
8
kedersystem
10
-205.141984
20
49.602715
30
14.710024
0
VERTEX
8
kedersystem
10
-205.141984
20
53.937484
30
15.474361
0
VERTEX
8
kedersystem
10
-205.453442
20
53.937484
30
15.347177
0
VERTEX
8
kedersystem
10
-205.453442
20
49.646215
30
14.590510
0
SEQEND
0
POLYLINE
8
kedersystem
62
0
66
1
70
9
0
VERTEX
8
kedersystem
10
-205.868463
20
53.937484
30
14.829805
0
VERTEX
8
kedersystem
10
-205.868463
20
58.051801
30
14.104340
0
VERTEX
8
kedersystem
10
-205.925054
20
57.938377
30
13.792709
0
VERTEX
8
kedersystem
10
-205.925054
20
53.937484
30
14.498174
0
SEQEND
0
POLYLINE
8
kedersystem
62
0
66
1
70
9
0
VERTEX
8
kedersystem
10
-205.141984
20
53.937484
30
15.474361
0
VERTEX
8
kedersystem
10
-205.141984
20
58.272252
30
14.710024
0
VERTEX
8
kedersystem
10
-205.453442
20
58.228753
30
14.590510
0
VERTEX
8
kedersystem
10
-205.453442
20
53.937484
30
15.347177
0
SEQEND
0
POLYLINE
8
kedersystem
62
0
66
1
70
9
0
VERTEX
8
kedersystem
10
-205.868463
20
58.051801
30
14.104340
0
VERTEX
8
kedersystem
10
-205.868463
20
61.669871
30
12.015446
0
VERTEX
8
kedersystem
10
-205.925054
20
61.456703
30
11.761402
0
VERTEX
8
kedersystem
10
-205.925054
20
57.938377
30
13.792709
0
SEQEND
0
POLYLINE
8
kedersystem
62
0
66
1
70
9
0
VERTEX
8
kedersystem
10
-205.141984
20
58.272252
30
14.710024
0
VERTEX
8
kedersystem
10
-205.141984
20
62.084184
30
12.509205
0
VERTEX
8
kedersystem
10
-205.453442
20
62.002432
30
12.411776
0
VERTEX
8
kedersystem
10
-205.453442
20
58.228753
30
14.590510
0
SEQEND
0
POLYLINE
8
kedersystem
62
0
66
1
70
9
0
VERTEX
8
kedersystem
10
-205.868463
20
61.669871
30
12.015446
0
VERTEX
8
kedersystem
10
-205.868463
20
64.355301
30
8.815075
0
VERTEX
8
kedersystem
10
-205.925054
20
64.068100
30
8.649260
0
VERTEX
8
kedersystem
10
-205.925054
20
61.456703
30
11.761402
0
SEQEND
0
POLYLINE
8
kedersystem
62
0
66
1
70
9
0
VERTEX
8
kedersystem
10
-205.141984
20
62.084184
30
12.509205
0
VERTEX
8
kedersystem
10
-205.141984
20
64.913503
30
9.137353
0
VERTEX
8
kedersystem
10
-205.453442
20
64.803359
30
9.073761
0
VERTEX
8
kedersystem
10
-205.453442
20
62.002432
30
12.411776
0
SEQEND
0
POLYLINE
8
kedersystem
62
0
66
1
70
9
0
VERTEX
8
kedersystem
10
-205.868463
20
64.355301
30
8.815075
0
VERTEX
8
kedersystem
10
-205.868463
20
65.784189
30
4.889239
0
VERTEX
8
kedersystem
10
-205.925054
20
65.457596
30
4.831652
0
VERTEX
8
kedersystem
10
-205.925054
20
64.068100
30
8.649260
0
SEQEND
0
POLYLINE
8
kedersystem
62
0
66
1
70
9
0
VERTEX
8
kedersystem
10
-205.141984
20
64.913503
30
9.137353
0
VERTEX
8
kedersystem
10
-205.141984
20
66.418953
30
5.001165
0
VERTEX
8
kedersystem
10
-205.453442
20
66.293701
30
4.979080
0
VERTEX
8
kedersystem
10
-205.453442
20
64.803359
30
9.073761
0
SEQEND
0
POLYLINE
8
kedersystem
62
0
66
1
70
9
0
VERTEX
8
kedersystem
10
-205.868463
20
65.784189
30
4.889239
0
VERTEX
8
kedersystem
10
-205.868463
20
65.784189
30
0.711452
0
VERTEX
8
kedersystem
10
-205.925054
20
65.457596
30
0.769039
0
VERTEX
8
kedersystem
10
-205.925054
20
65.457596
30
4.831652
0
SEQEND
0
POLYLINE
8
kedersystem
62
0
66
1
70
9
0
VERTEX
8
kedersystem
10
-205.141984
20
66.418953
30
5.001165
0
VERTEX
8
kedersystem
10
-205.141984
20
66.418953
30
0.599526
0
VERTEX
8
kedersystem
10
-205.453442
20
66.293701
30
0.621611
0
VERTEX
8
kedersystem
10
-205.453442
20
66.293701
30
4.979080
0
SEQEND
0
POLYLINE
8
kedersystem
62
0
66
1
70
9
0
VERTEX
8
kedersystem
10
-205.868463
20
65.784189
30
0.711452
0
VERTEX
8
kedersystem
10
-205.868463
20
64.355301
30
-3.214384
0
VERTEX
8
kedersystem
10
-205.925054
20
64.068100
30
-3.048569
0
VERTEX
8
kedersystem
10
-205.925054
20
65.457596
30
0.769039
0
SEQEND
0
POLYLINE
8
kedersystem
62
0
66
1
70
9
0
VERTEX
8
kedersystem
10
-205.141984
20
66.418953
30
0.599526
0
VERTEX
8
kedersystem
10
-205.141984
20
64.913503
30
-3.536662
0
VERTEX
8
kedersystem
10
-205.453442
20
64.803359
30
-3.473070
0
VERTEX
8
kedersystem
10
-205.453442
20
66.293701
30
0.621611
0
SEQEND
0
POLYLINE
8
kedersystem
62
0
66
1
70
9
0
VERTEX
8
kedersystem
10
-205.868463
20
64.355301
30
-3.214384
0
VERTEX
8
kedersystem
10
-205.868463
20
61.669871
30
-6.414755
0
VERTEX
8
kedersystem
10
-205.925054
20
61.456703
30
-6.160711
0
VERTEX
8
kedersystem
10
-205.925054
20
64.068100
30
-3.048569
0
SEQEND
0
POLYLINE
8
kedersystem
62
0
66
1
70
9
0
VERTEX
8
kedersystem
10
-205.141984
20
64.913503
30
-3.536662
0
VERTEX
8
kedersystem
10
-205.141984
20
62.084184
30
-6.908514
0
VERTEX
8
kedersystem
10
-205.453442
20
62.002432
30
-6.811085
0
VERTEX
8
kedersystem
10
-205.453442
20
64.803359
30
-3.473070
0
SEQEND
0
POLYLINE
8
kedersystem
62
0
66
1
70
9
0
VERTEX
8
kedersystem
10
-205.705096
20
58.152388
30
-8.780009
0
VERTEX
8
kedersystem
10
-205.868463
20
58.051801
30
-8.503649
0
VERTEX
8
kedersystem
10
-205.868463
20
61.669871
30
-6.414755
0
SEQEND
0
POLYLINE
8
kedersystem
62
0
66
1
70
9
0
VERTEX
8
kedersystem
10
-205.705096
20
61.858913
30
-6.640046
0
VERTEX
8
kedersystem
10
-205.705096
20
58.152388
30
-8.780009
0
VERTEX
8
kedersystem
10
-205.868463
20
61.669871
30
-6.414755
0
SEQEND
0
POLYLINE
8
kedersystem
62
0
66
1
70
9
0
VERTEX
8
kedersystem
10
-205.453442
20
58.228753
30
-8.989819
0
VERTEX
8
kedersystem
10
-205.705096
20
58.152388
30
-8.780009
0
VERTEX
8
kedersystem
10
-205.705096
20
61.858913
30
-6.640046
0
SEQEND
0
POLYLINE
8
kedersystem
62
0
66
1
70
9
0
VERTEX
8
kedersystem
10
-205.453442
20
62.002432
30
-6.811085
0
VERTEX
8
kedersystem
10
-205.453442
20
58.228753
30
-8.989819
0
VERTEX
8
kedersystem
10
-205.705096
20
61.858913
30
-6.640046
0
SEQEND
0
POLYLINE
8
kedersystem
62
0
66
1
70
9
0
VERTEX
8
kedersystem
10
-205.705096
20
53.937484
30
-9.523210
0
VERTEX
8
kedersystem
10
-205.868463
20
53.937484
30
-9.229114
0
VERTEX
8
kedersystem
10
-205.868463
20
58.051801
30
-8.503649
0
SEQEND
0
POLYLINE
8
kedersystem
62
0
66
1
70
9
0
VERTEX
8
kedersystem
10
-205.705096
20
58.152388
30
-8.780009
0
VERTEX
8
kedersystem
10
-205.705096
20
53.937484
30
-9.523210
0
VERTEX
8
kedersystem
10
-205.868463
20
58.051801
30
-8.503649
0
SEQEND
0
POLYLINE
8
kedersystem
62
0
66
1
70
9
0
VERTEX
8
kedersystem
10
-205.453442
20
53.937484
30
-9.746486
0
VERTEX
8
kedersystem
10
-205.705096
20
53.937484
30
-9.523210
0
VERTEX
8
kedersystem
10
-205.705096
20
58.152388
30
-8.780009
0
SEQEND
0
POLYLINE
8
kedersystem
62
0
66
1
70
9
0
VERTEX
8
kedersystem
10
-205.453442
20
58.228753
30
-8.989819
0
VERTEX
8
kedersystem
10
-205.453442
20
53.937484
30
-9.746486
0
VERTEX
8
kedersystem
10
-205.705096
20
58.152388
30
-8.780009
0
SEQEND
0
POLYLINE
8
kedersystem
62
0
66
1
70
9
0
VERTEX
8
kedersystem
10
-205.705096
20
49.722580
30
-8.780009
0
VERTEX
8
kedersystem
10
-205.868463
20
49.823166
30
-8.503649
0
VERTEX
8
kedersystem
10
-205.868463
20
53.937484
30
-9.229114
0
SEQEND
0
POLYLINE
8
kedersystem
62
0
66
1
70
9
0
VERTEX
8
kedersystem
10
-205.705096
20
53.937484
30
-9.523210
0
VERTEX
8
kedersystem
10
-205.705096
20
49.722580
30
-8.780009
0
VERTEX
8
kedersystem
10
-205.868463
20
53.937484
30
-9.229114
0
SEQEND
0
POLYLINE
8
kedersystem
62
0
66
1
70
9
0
VERTEX
8
kedersystem
10
-205.453442
20
49.646215
30
-8.989819
0
VERTEX
8
kedersystem
10
-205.705096
20
49.722580
30
-8.780009
0
VERTEX
8
kedersystem
10
-205.705096
20
53.937484
30
-9.523210
0
SEQEND
0
POLYLINE
8
kedersystem
62
0
66
1
70
9
0
VERTEX
8
kedersystem
10
-205.453442
20
53.937484
30
-9.746486
0
VERTEX
8
kedersystem
10
-205.453442
20
49.646215
30
-8.989819
0
VERTEX
8
kedersystem
10
-205.705096
20
53.937484
30
-9.523210
0
SEQEND
0
POLYLINE
8
kedersystem
62
0
66
1
70
9
0
VERTEX
8
kedersystem
10
-205.705096
20
46.016055
30
-6.640046
0
VERTEX
8
kedersystem
10
-205.868463
20
46.205096
30
-6.414755
0
VERTEX
8
kedersystem
10
-205.868463
20
49.823166
30
-8.503649
0
SEQEND
0
POLYLINE
8
kedersystem
62
0
66
1
70
9
0
VERTEX
8
kedersystem
10
-205.705096
20
49.722580
30
-8.780009
0
VERTEX
8
kedersystem
10
-205.705096
20
46.016055
30
-6.640046
0
VERTEX
8
kedersystem
10
-205.868463
20
49.823166
30
-8.503649
0
SEQEND
0
POLYLINE
8
kedersystem
62
0
66
1
70
9
0
VERTEX
8
kedersystem
10
-205.453442
20
45.872536
30
-6.811085
0
VERTEX
8
kedersystem
10
-205.705096
20
46.016055
30
-6.640046
0
VERTEX
8
kedersystem
10
-205.705096
20
49.722580
30
-8.780009
0
SEQEND
0
POLYLINE
8
kedersystem
62
0
66
1
70
9
0
VERTEX
8
kedersystem
10
-205.453442
20
49.646215
30
-8.989819
0
VERTEX
8
kedersystem
10
-205.453442
20
45.872536
30
-6.811085
0
VERTEX
8
kedersystem
10
-205.705096
20
49.722580
30
-8.780009
0
SEQEND
0
POLYLINE
8
kedersystem
62
0
66
1
70
9
0
VERTEX
8
kedersystem
10
-205.705096
20
43.264971
30
-3.361432
0
VERTEX
8
kedersystem
10
-205.868463
20
43.519666
30
-3.214384
0
VERTEX
8
kedersystem
10
-205.868463
20
46.205096
30
-6.414755
0
SEQEND
0
POLYLINE
8
kedersystem
62
0
66
1
70
9
0
VERTEX
8
kedersystem
10
-205.705096
20
46.016055
30
-6.640046
0
VERTEX
8
kedersystem
10
-205.705096
20
43.264971
30
-3.361432
0
VERTEX
8
kedersystem
10
-205.868463
20
46.205096
30
-6.414755
0
SEQEND
0
POLYLINE
8
kedersystem
62
0
66
1
70
9
0
VERTEX
8
kedersystem
10
-205.453442
20
43.071609
30
-3.473070
0
VERTEX
8
kedersystem
10
-205.705096
20
43.264971
30
-3.361432
0
VERTEX
8
kedersystem
10
-205.705096
20
46.016055
30
-6.640046
0
SEQEND
0
POLYLINE
8
kedersystem
62
0
66
1
70
9
0
VERTEX
8
kedersystem
10
-205.453442
20
45.872536
30
-6.811085
0
VERTEX
8
kedersystem
10
-205.453442
20
43.071609
30
-3.473070
0
VERTEX
8
kedersystem
10
-205.705096
20
46.016055
30
-6.640046
0
SEQEND
0
POLYLINE
8
kedersystem
62
0
66
1
70
9
0
VERTEX
8
kedersystem
10
-205.705096
20
41.801151
30
0.660383
0
VERTEX
8
kedersystem
10
-205.868463
20
42.090779
30
0.711452
0
VERTEX
8
kedersystem
10
-205.868463
20
43.519666
30
-3.214384
0
SEQEND
0
POLYLINE
8
kedersystem
62
0
66
1
70
9
0
VERTEX
8
kedersystem
10
-205.705096
20
43.264971
30
-3.361432
0
VERTEX
8
kedersystem
10
-205.705096
20
41.801151
30
0.660383
0
VERTEX
8
kedersystem
10
-205.868463
20
43.519666
30
-3.214384
0
SEQEND
0
POLYLINE
8
kedersystem
62
0
66
1
70
9
0
VERTEX
8
kedersystem
10
-205.453442
20
41.581267
30
0.621611
0
VERTEX
8
kedersystem
10
-205.705096
20
41.801151
30
0.660383
0
VERTEX
8
kedersystem
10
-205.705096
20
43.264971
30
-3.361432
0
SEQEND
0
POLYLINE
8
kedersystem
62
0
66
1
70
9
0
VERTEX
8
kedersystem
10
-205.453442
20
43.071609
30
-3.473070
0
VERTEX
8
kedersystem
10
-205.453442
20
41.581267
30
0.621611
0
VERTEX
8
kedersystem
10
-205.705096
20
43.264971
30
-3.361432
0
SEQEND
0
POLYLINE
8
kedersystem
62
0
66
1
70
9
0
VERTEX
8
kedersystem
10
-205.705096
20
41.801151
30
4.940309
0
VERTEX
8
kedersystem
10
-205.868463
20
42.090779
30
4.889239
0
VERTEX
8
kedersystem
10
-205.868463
20
42.090779
30
0.711452
0
SEQEND
0
POLYLINE
8
kedersystem
62
0
66
1
70
9
0
VERTEX
8
kedersystem
10
-205.705096
20
41.801151
30
0.660383
0
VERTEX
8
kedersystem
10
-205.705096
20
41.801151
30
4.940309
0
VERTEX
8
kedersystem
10
-205.868463
20
42.090779
30
0.711452
0
SEQEND
0
POLYLINE
8
kedersystem
62
0
66
1
70
9
0
VERTEX
8
kedersystem
10
-205.453442
20
41.581267
30
4.979080
0
VERTEX
8
kedersystem
10
-205.705096
20
41.801151
30
4.940309
0
VERTEX
8
kedersystem
10
-205.705096
20
41.801151
30
0.660383
0
SEQEND
0
POLYLINE
8
kedersystem
62
0
66
1
70
9
0
VERTEX
8
kedersystem
10
-205.453442
20
41.581267
30
0.621611
0
VERTEX
8
kedersystem
10
-205.453442
20
41.581267
30
4.979080
0
VERTEX
8
kedersystem
10
-205.705096
20
41.801151
30
0.660383
0
SEQEND
0
POLYLINE
8
kedersystem
62
0
66
1
70
9
0
VERTEX
8
kedersystem
10
-205.705096
20
43.264971
30
8.962123
0
VERTEX
8
kedersystem
10
-205.868463
20
43.519666
30
8.815075
0
VERTEX
8
kedersystem
10
-205.868463
20
42.090779
30
4.889239
0
SEQEND
0
POLYLINE
8
kedersystem
62
0
66
1
70
9
0
VERTEX
8
kedersystem
10
-205.705096
20
41.801151
30
4.940309
0
VERTEX
8
kedersystem
10
-205.705096
20
43.264971
30
8.962123
0
VERTEX
8
kedersystem
10
-205.868463
20
42.090779
30
4.889239
0
SEQEND
0
POLYLINE
8
kedersystem
62
0
66
1
70
9
0
VERTEX
8
kedersystem
10
-205.453442
20
43.071609
30
9.073761
0
VERTEX
8
kedersystem
10
-205.705096
20
43.264971
30
8.962123
0
VERTEX
8
kedersystem
10
-205.705096
20
41.801151
30
4.940309
0
SEQEND
0
POLYLINE
8
kedersystem
62
0
66
1
70
9
0
VERTEX
8
kedersystem
10
-205.453442
20
41.581267
30
4.979080
0
VERTEX
8
kedersystem
10
-205.453442
20
43.071609
30
9.073761
0
VERTEX
8
kedersystem
10
-205.705096
20
41.801151
30
4.940309
0
SEQEND
0
POLYLINE
8
kedersystem
62
0
66
1
70
9
0
VERTEX
8
kedersystem
10
-205.705096
20
46.016055
30
12.240737
0
VERTEX
8
kedersystem
10
-205.868463
20
46.205096
30
12.015446
0
VERTEX
8
kedersystem
10
-205.868463
20
43.519666
30
8.815075
0
SEQEND
0
POLYLINE
8
kedersystem
62
0
66
1
70
9
0
VERTEX
8
kedersystem
10
-205.705096
20
43.264971
30
8.962123
0
VERTEX
8
kedersystem
10
-205.705096
20
46.016055
30
12.240737
0
VERTEX
8
kedersystem
10
-205.868463
20
43.519666
30
8.815075
0
SEQEND
0
POLYLINE
8
kedersystem
62
0
66
1
70
9
0
VERTEX
8
kedersystem
10
-205.453442
20
45.872536
30
12.411776
0
VERTEX
8
kedersystem
10
-205.705096
20
46.016055
30
12.240737
0
VERTEX
8
kedersystem
10
-205.705096
20
43.264971
30
8.962123
0
SEQEND
0
POLYLINE
8
kedersystem
62
0
66
1
70
9
0
VERTEX
8
kedersystem
10
-205.453442
20
43.071609
30
9.073761
0
VERTEX
8
kedersystem
10
-205.453442
20
45.872536
30
12.411776
0
VERTEX
8
kedersystem
10
-205.705096
20
43.264971
30
8.962123
0
SEQEND
0
POLYLINE
8
kedersystem
62
0
66
1
70
9
0
VERTEX
8
kedersystem
10
-205.705096
20
49.722580
30
14.380700
0
VERTEX
8
kedersystem
10
-205.868463
20
49.823166
30
14.104340
0
VERTEX
8
kedersystem
10
-205.868463
20
46.205096
30
12.015446
0
SEQEND
0
POLYLINE
8
kedersystem
62
0
66
1
70
9
0
VERTEX
8
kedersystem
10
-205.705096
20
46.016055
30
12.240737
0
VERTEX
8
kedersystem
10
-205.705096
20
49.722580
30
14.380700
0
VERTEX
8
kedersystem
10
-205.868463
20
46.205096
30
12.015446
0
SEQEND
0
POLYLINE
8
kedersystem
62
0
66
1
70
9
0
VERTEX
8
kedersystem
10
-205.453442
20
49.646215
30
14.590510
0
VERTEX
8
kedersystem
10
-205.705096
20
49.722580
30
14.380700
0
VERTEX
8
kedersystem
10
-205.705096
20
46.016055
30
12.240737
0
SEQEND
0
POLYLINE
8
kedersystem
62
0
66
1
70
9
0
VERTEX
8
kedersystem
10
-205.453442
20
45.872536
30
12.411776
0
VERTEX
8
kedersystem
10
-205.453442
20
49.646215
30
14.590510
0
VERTEX
8
kedersystem
10
-205.705096
20
46.016055
30
12.240737
0
SEQEND
0
POLYLINE
8
kedersystem
62
0
66
1
70
9
0
VERTEX
8
kedersystem
10
-205.705096
20
53.937484
30
15.123901
0
VERTEX
8
kedersystem
10
-205.868463
20
53.937484
30
14.829805
0
VERTEX
8
kedersystem
10
-205.868463
20
49.823166
30
14.104340
0
SEQEND
0
POLYLINE
8
kedersystem
62
0
66
1
70
9
0
VERTEX
8
kedersystem
10
-205.705096
20
49.722580
30
14.380700
0
VERTEX
8
kedersystem
10
-205.705096
20
53.937484
30
15.123901
0
VERTEX
8
kedersystem
10
-205.868463
20
49.823166
30
14.104340
0
SEQEND
0
POLYLINE
8
kedersystem
62
0
66
1
70
9
0
VERTEX
8
kedersystem
10
-205.453442
20
53.937484
30
15.347177
0
VERTEX
8
kedersystem
10
-205.705096
20
53.937484
30
15.123901
0
VERTEX
8
kedersystem
10
-205.705096
20
49.722580
30
14.380700
0
SEQEND
0
POLYLINE
8
kedersystem
62
0
66
1
70
9
0
VERTEX
8
kedersystem
10
-205.453442
20
49.646215
30
14.590510
0
VERTEX
8
kedersystem
10
-205.453442
20
53.937484
30
15.347177
0
VERTEX
8
kedersystem
10
-205.705096
20
49.722580
30
14.380700
0
SEQEND
0
POLYLINE
8
kedersystem
62
0
66
1
70
9
0
VERTEX
8
kedersystem
10
-205.705096
20
58.152388
30
14.380700
0
VERTEX
8
kedersystem
10
-205.868463
20
58.051801
30
14.104340
0
VERTEX
8
kedersystem
10
-205.868463
20
53.937484
30
14.829805
0
SEQEND
0
POLYLINE
8
kedersystem
62
0
66
1
70
9
0
VERTEX
8
kedersystem
10
-205.705096
20
53.937484
30
15.123901
0
VERTEX
8
kedersystem
10
-205.705096
20
58.152388
30
14.380700
0
VERTEX
8
kedersystem
10
-205.868463
20
53.937484
30
14.829805
0
SEQEND
0
POLYLINE
8
kedersystem
62
0
66
1
70
9
0
VERTEX
8
kedersystem
10
-205.453442
20
58.228753
30
14.590510
0
VERTEX
8
kedersystem
10
-205.705096
20
58.152388
30
14.380700
0
VERTEX
8
kedersystem
10
-205.705096
20
53.937484
30
15.123901
0
SEQEND
0
POLYLINE
8
kedersystem
62
0
66
1
70
9
0
VERTEX
8
kedersystem
10
-205.453442
20
53.937484
30
15.347177
0
VERTEX
8
kedersystem
10
-205.453442
20
58.228753
30
14.590510
0
VERTEX
8
kedersystem
10
-205.705096
20
53.937484
30
15.123901
0
SEQEND
0
POLYLINE
8
kedersystem
62
0
66
1
70
9
0
VERTEX
8
kedersystem
10
-205.705096
20
61.858913
30
12.240737
0
VERTEX
8
kedersystem
10
-205.868463
20
61.669871
30
12.015446
0
VERTEX
8
kedersystem
10
-205.868463
20
58.051801
30
14.104340
0
SEQEND
0
POLYLINE
8
kedersystem
62
0
66
1
70
9
0
VERTEX
8
kedersystem
10
-205.705096
20
58.152388
30
14.380700
0
VERTEX
8
kedersystem
10
-205.705096
20
61.858913
30
12.240737
0
VERTEX
8
kedersystem
10
-205.868463
20
58.051801
30
14.104340
0
SEQEND
0
POLYLINE
8
kedersystem
62
0
66
1
70
9
0
VERTEX
8
kedersystem
10
-205.453442
20
62.002432
30
12.411776
0
VERTEX
8
kedersystem
10
-205.705096
20
61.858913
30
12.240737
0
VERTEX
8
kedersystem
10
-205.705096
20
58.152388
30
14.380700
0
SEQEND
0
POLYLINE
8
kedersystem
62
0
66
1
70
9
0
VERTEX
8
kedersystem
10
-205.453442
20
58.228753
30
14.590510
0
VERTEX
8
kedersystem
10
-205.453442
20
62.002432
30
12.411776
0
VERTEX
8
kedersystem
10
-205.705096
20
58.152388
30
14.380700
0
SEQEND
0
POLYLINE
8
kedersystem
62
0
66
1
70
9
0
VERTEX
8
kedersystem
10
-205.705096
20
64.609996
30
8.962123
0
VERTEX
8
kedersystem
10
-205.868463
20
64.355301
30
8.815075
0
VERTEX
8
kedersystem
10
-205.868463
20
61.669871
30
12.015446
0
SEQEND
0
POLYLINE
8
kedersystem
62
0
66
1
70
9
0
VERTEX
8
kedersystem
10
-205.705096
20
61.858913
30
12.240737
0
VERTEX
8
kedersystem
10
-205.705096
20
64.609996
30
8.962123
0
VERTEX
8
kedersystem
10
-205.868463
20
61.669871
30
12.015446
0
SEQEND
0
POLYLINE
8
kedersystem
62
0
66
1
70
9
0
VERTEX
8
kedersystem
10
-205.453442
20
64.803359
30
9.073761
0
VERTEX
8
kedersystem
10
-205.705096
20
64.609996
30
8.962123
0
VERTEX
8
kedersystem
10
-205.705096
20
61.858913
30
12.240737
0
SEQEND
0
POLYLINE
8
kedersystem
62
0
66
1
70
9
0
VERTEX
8
kedersystem
10
-205.453442
20
62.002432
30
12.411776
0
VERTEX
8
kedersystem
10
-205.453442
20
64.803359
30
9.073761
0
VERTEX
8
kedersystem
10
-205.705096
20
61.858913
30
12.240737
0
SEQEND
0
POLYLINE
8
kedersystem
62
0
66
1
70
9
0
VERTEX
8
kedersystem
10
-205.705096
20
66.073817
30
4.940309
0
VERTEX
8
kedersystem
10
-205.868463
20
65.784189
30
4.889239
0
VERTEX
8
kedersystem
10
-205.868463
20
64.355301
30
8.815075
0
SEQEND
0
POLYLINE
8
kedersystem
62
0
66
1
70
9
0
VERTEX
8
kedersystem
10
-205.705096
20
64.609996
30
8.962123
0
VERTEX
8
kedersystem
10
-205.705096
20
66.073817
30
4.940309
0
VERTEX
8
kedersystem
10
-205.868463
20
64.355301
30
8.815075
0
SEQEND
0
POLYLINE
8
kedersystem
62
0
66
1
70
9
0
VERTEX
8
kedersystem
10
-205.453442
20
66.293701
30
4.979080
0
VERTEX
8
kedersystem
10
-205.705096
20
66.073817
30
4.940309
0
VERTEX
8
kedersystem
10
-205.705096
20
64.609996
30
8.962123
0
SEQEND
0
POLYLINE
8
kedersystem
62
0
66
1
70
9
0
VERTEX
8
kedersystem
10
-205.453442
20
64.803359
30
9.073761
0
VERTEX
8
kedersystem
10
-205.453442
20
66.293701
30
4.979080
0
VERTEX
8
kedersystem
10
-205.705096
20
64.609996
30
8.962123
0
SEQEND
0
POLYLINE
8
kedersystem
62
0
66
1
70
9
0
VERTEX
8
kedersystem
10
-205.705096
20
66.073817
30
0.660383
0
VERTEX
8
kedersystem
10
-205.868463
20
65.784189
30
0.711452
0
VERTEX
8
kedersystem
10
-205.868463
20
65.784189
30
4.889239
0
SEQEND
0
POLYLINE
8
kedersystem
62
0
66
1
70
9
0
VERTEX
8
kedersystem
10
-205.705096
20
66.073817
30
4.940309
0
VERTEX
8
kedersystem
10
-205.705096
20
66.073817
30
0.660383
0
VERTEX
8
kedersystem
10
-205.868463
20
65.784189
30
4.889239
0
SEQEND
0
POLYLINE
8
kedersystem
62
0
66
1
70
9
0
VERTEX
8
kedersystem
10
-205.453442
20
66.293701
30
0.621611
0
VERTEX
8
kedersystem
10
-205.705096
20
66.073817
30
0.660383
0
VERTEX
8
kedersystem
10
-205.705096
20
66.073817
30
4.940309
0
SEQEND
0
POLYLINE
8
kedersystem
62
0
66
1
70
9
0
VERTEX
8
kedersystem
10
-205.453442
20
66.293701
30
4.979080
0
VERTEX
8
kedersystem
10
-205.453442
20
66.293701
30
0.621611
0
VERTEX
8
kedersystem
10
-205.705096
20
66.073817
30
4.940309
0
SEQEND
0
POLYLINE
8
kedersystem
62
0
66
1
70
9
0
VERTEX
8
kedersystem
10
-205.705096
20
64.609996
30
-3.361432
0
VERTEX
8
kedersystem
10
-205.868463
20
64.355301
30
-3.214384
0
VERTEX
8
kedersystem
10
-205.868463
20
65.784189
30
0.711452
0
SEQEND
0
POLYLINE
8
kedersystem
62
0
66
1
70
9
0
VERTEX
8
kedersystem
10
-205.705096
20
66.073817
30
0.660383
0
VERTEX
8
kedersystem
10
-205.705096
20
64.609996
30
-3.361432
0
VERTEX
8
kedersystem
10
-205.868463
20
65.784189
30
0.711452
0
SEQEND
0
POLYLINE
8
kedersystem
62
0
66
1
70
9
0
VERTEX
8
kedersystem
10
-205.453442
20
64.803359
30
-3.473070
0
VERTEX
8
kedersystem
10
-205.705096
20
64.609996
30
-3.361432
0
VERTEX
8
kedersystem
10
-205.705096
20
66.073817
30
0.660383
0
SEQEND
0
POLYLINE
8
kedersystem
62
0
66
1
70
9
0
VERTEX
8
kedersystem
10
-205.453442
20
66.293701
30
0.621611
0
VERTEX
8
kedersystem
10
-205.453442
20
64.803359
30
-3.473070
0
VERTEX
8
kedersystem
10
-205.705096
20
66.073817
30
0.660383
0
SEQEND
0
POLYLINE
8
kedersystem
62
0
66
1
70
9
0
VERTEX
8
kedersystem
10
-205.705096
20
61.858913
30
-6.640046
0
VERTEX
8
kedersystem
10
-205.868463
20
61.669871
30
-6.414755
0
VERTEX
8
kedersystem
10
-205.868463
20
64.355301
30
-3.214384
0
SEQEND
0
POLYLINE
8
kedersystem
62
0
66
1
70
9
0
VERTEX
8
kedersystem
10
-205.705096
20
64.609996
30
-3.361432
0
VERTEX
8
kedersystem
10
-205.705096
20
61.858913
30
-6.640046
0
VERTEX
8
kedersystem
10
-205.868463
20
64.355301
30
-3.214384
0
SEQEND
0
POLYLINE
8
kedersystem
62
0
66
1
70
9
0
VERTEX
8
kedersystem
10
-205.453442
20
62.002432
30
-6.811085
0
VERTEX
8
kedersystem
10
-205.705096
20
61.858913
30
-6.640046
0
VERTEX
8
kedersystem
10
-205.705096
20
64.609996
30
-3.361432
0
SEQEND
0
POLYLINE
8
kedersystem
62
0
66
1
70
9
0
VERTEX
8
kedersystem
10
-205.453442
20
64.803359
30
-3.473070
0
VERTEX
8
kedersystem
10
-205.453442
20
62.002432
30
-6.811085
0
VERTEX
8
kedersystem
10
-205.705096
20
64.609996
30
-3.361432
0
SEQEND
0
POLYLINE
8
kedersystem
62
0
66
1
70
9
0
VERTEX
8
kedersystem
10
-165.925054
20
53.937484
30
-14.699654
0
VERTEX
8
kedersystem
10
-165.925054
20
59.922836
30
-13.644275
0
VERTEX
8
kedersystem
10
-165.925054
20
65.186267
30
-10.605432
0
VERTEX
8
kedersystem
10
-165.925054
20
69.092928
30
-5.949654
0
VERTEX
8
kedersystem
10
-165.925054
20
71.171620
30
-0.238498
0
VERTEX
8
kedersystem
10
-165.925054
20
71.171620
30
5.839189
0
VERTEX
8
kedersystem
10
-165.925054
20
69.092928
30
11.550346
0
VERTEX
8
kedersystem
10
-165.925054
20
65.186267
30
16.206123
0
VERTEX
8
kedersystem
10
-165.925054
20
59.922836
30
19.244966
0
VERTEX
8
kedersystem
10
-165.925054
20
53.937484
30
20.300346
0
VERTEX
8
kedersystem
10
-165.925054
20
47.952131
30
19.244966
0
VERTEX
8
kedersystem
10
-165.925054
20
42.688701
30
16.206123
0
VERTEX
8
kedersystem
10
-165.925054
20
38.782039
30
11.550346
0
VERTEX
8
kedersystem
10
-165.925054
20
36.703348
30
5.839189
0
VERTEX
8
kedersystem
10
-165.925054
20
36.703348
30
-0.238498
0
VERTEX
8
kedersystem
10
-165.925054
20
38.782039
30
-5.949654
0
VERTEX
8
kedersystem
10
-165.925054
20
42.688701
30
-10.605432
0
VERTEX
8
kedersystem
10
-165.925054
20
47.952131
30
-13.644275
0
SEQEND
0
POLYLINE
8
1
62
0
66
1
70
9
0
VERTEX
8
1
10
-60.925054
20
53.937484
30
27.800346
0
VERTEX
8
1
10
-60.925054
20
58.278688
30
27.420539
0
VERTEX
8
1
10
-165.925054
20
58.278688
30
27.420539
0
VERTEX
8
1
10
-165.925054
20
53.937484
30
27.800346
0
SEQEND
0
POLYLINE
8
1
62
0
66
1
70
9
0
VERTEX
8
1
10
-60.925054
20
58.278688
30
27.420539
0
VERTEX
8
1
10
-60.925054
20
62.487987
30
26.292661
0
VERTEX
8
1
10
-165.925054
20
62.487987
30
26.292661
0
VERTEX
8
1
10
-165.925054
20
58.278688
30
27.420539
0
SEQEND
0
POLYLINE
8
1
62
0
66
1
70
9
0
VERTEX
8
1
10
-60.925054
20
62.487987
30
26.292661
0
VERTEX
8
1
10
-60.925054
20
66.437484
30
24.450981
0
VERTEX
8
1
10
-165.925054
20
66.437484
30
24.450981
0
VERTEX
8
1
10
-165.925054
20
62.487987
30
26.292661
0
SEQEND
0
POLYLINE
8
1
62
0
66
1
70
9
0
VERTEX
8
1
10
-60.925054
20
66.437484
30
24.450981
0
VERTEX
8
1
10
-60.925054
20
70.007174
30
21.951457
0
VERTEX
8
1
10
-165.925054
20
70.007174
30
21.951457
0
VERTEX
8
1
10
-165.925054
20
66.437484
30
24.450981
0
SEQEND
0
POLYLINE
8
1
62
0
66
1
70
9
0
VERTEX
8
1
10
-60.925054
20
70.007174
30
21.951457
0
VERTEX
8
1
10
-60.925054
20
73.088595
30
18.870036
0
VERTEX
8
1
10
-165.925054
20
73.088595
30
18.870036
0
VERTEX
8
1
10
-165.925054
20
70.007174
30
21.951457
0
SEQEND
0
POLYLINE
8
1
62
0
66
1
70
9
0
VERTEX
8
1
10
-60.925054
20
73.088595
30
18.870036
0
VERTEX
8
1
10
-60.925054
20
75.588119
30
15.300346
0
VERTEX
8
1
10
-165.925054
20
75.588119
30
15.300346
0
VERTEX
8
1
10
-165.925054
20
73.088595
30
18.870036
0
SEQEND
0
POLYLINE
8
1
62
0
66
1
70
9
0
VERTEX
8
1
10
-60.925054
20
75.588119
30
15.300346
0
VERTEX
8
1
10
-60.925054
20
77.429799
30
11.350849
0
VERTEX
8
1
10
-165.925054
20
77.429799
30
11.350849
0
VERTEX
8
1
10
-165.925054
20
75.588119
30
15.300346
0
SEQEND
0
POLYLINE
8
1
62
0
66
1
70
9
0
VERTEX
8
1
10
-60.925054
20
77.429799
30
11.350849
0
VERTEX
8
1
10
-60.925054
20
78.557678
30
7.141550
0
VERTEX
8
1
10
-165.925054
20
78.557678
30
7.141550
0
VERTEX
8
1
10
-165.925054
20
77.429799
30
11.350849
0
SEQEND
0
POLYLINE
8
1
62
0
66
1
70
9
0
VERTEX
8
1
10
-60.925054
20
78.557678
30
7.141550
0
VERTEX
8
1
10
-60.925054
20
78.937484
30
2.800346
0
VERTEX
8
1
10
-165.925054
20
78.937484
30
2.800346
0
VERTEX
8
1
10
-165.925054
20
78.557678
30
7.141550
0
SEQEND
0
POLYLINE
8
1
62
0
66
1
70
9
0
VERTEX
8
1
10
-60.925054
20
78.937484
30
2.800346
0
VERTEX
8
1
10
-60.925054
20
78.557678
30
-1.540859
0
VERTEX
8
1
10
-165.925054
20
78.557678
30
-1.540859
0
VERTEX
8
1
10
-165.925054
20
78.937484
30
2.800346
0
SEQEND
0
POLYLINE
8
1
62
0
66
1
70
9
0
VERTEX
8
1
10
-60.925054
20
78.557678
30
-1.540859
0
VERTEX
8
1
10
-60.925054
20
77.429799
30
-5.750158
0
VERTEX
8
1
10
-165.925054
20
77.429799
30
-5.750158
0
VERTEX
8
1
10
-165.925054
20
78.557678
30
-1.540859
0
SEQEND
0
POLYLINE
8
1
62
0
66
1
70
9
0
VERTEX
8
1
10
-60.925054
20
77.429799
30
-5.750158
0
VERTEX
8
1
10
-60.925054
20
75.588119
30
-9.699654
0
VERTEX
8
1
10
-165.925054
20
75.588119
30
-9.699654
0
VERTEX
8
1
10
-165.925054
20
77.429799
30
-5.750158
0
SEQEND
0
POLYLINE
8
1
62
0
66
1
70
9
0
VERTEX
8
1
10
-60.925054
20
75.588119
30
-9.699654
0
VERTEX
8
1
10
-60.925054
20
73.088595
30
-13.269345
0
VERTEX
8
1
10
-165.925054
20
73.088595
30
-13.269345
0
VERTEX
8
1
10
-165.925054
20
75.588119
30
-9.699654
0
SEQEND
0
POLYLINE
8
1
62
0
66
1
70
9
0
VERTEX
8
1
10
-60.925054
20
73.088595
30
-13.269345
0
VERTEX
8
1
10
-60.925054
20
70.007174
30
-16.350766
0
VERTEX
8
1
10
-165.925054
20
70.007174
30
-16.350766
0
VERTEX
8
1
10
-165.925054
20
73.088595
30
-13.269345
0
SEQEND
0
POLYLINE
8
1
62
0
66
1
70
9
0
VERTEX
8
1
10
-60.925054
20
70.007174
30
-16.350766
0
VERTEX
8
1
10
-60.925054
20
66.437484
30
-18.850290
0
VERTEX
8
1
10
-165.925054
20
66.437484
30
-18.850290
0
VERTEX
8
1
10
-165.925054
20
70.007174
30
-16.350766
0
SEQEND
0
POLYLINE
8
1
62
0
66
1
70
9
0
VERTEX
8
1
10
-60.925054
20
66.437484
30
-18.850290
0
VERTEX
8
1
10
-60.925054
20
62.487987
30
-20.691970
0
VERTEX
8
1
10
-165.925054
20
62.487987
30
-20.691970
0
VERTEX
8
1
10
-165.925054
20
66.437484
30
-18.850290
0
SEQEND
0
POLYLINE
8
1
62
0
66
1
70
9
0
VERTEX
8
1
10
-60.925054
20
62.487987
30
-20.691970
0
VERTEX
8
1
10
-60.925054
20
58.278688
30
-21.819848
0
VERTEX
8
1
10
-165.925054
20
58.278688
30
-21.819848
0
VERTEX
8
1
10
-165.925054
20
62.487987
30
-20.691970
0
SEQEND
0
POLYLINE
8
1
62
0
66
1
70
9
0
VERTEX
8
1
10
-60.925054
20
58.278688
30
-21.819848
0
VERTEX
8
1
10
-60.925054
20
53.937484
30
-22.199654
0
VERTEX
8
1
10
-165.925054
20
53.937484
30
-22.199654
0
VERTEX
8
1
10
-165.925054
20
58.278688
30
-21.819848
0
SEQEND
0
POLYLINE
8
1
62
0
66
1
70
9
0
VERTEX
8
1
10
-60.925054
20
53.937484
30
-22.199654
0
VERTEX
8
1
10
-60.925054
20
49.596279
30
-21.819848
0
VERTEX
8
1
10
-165.925054
20
49.596279
30
-21.819848
0
VERTEX
8
1
10
-165.925054
20
53.937484
30
-22.199654
0
SEQEND
0
POLYLINE
8
1
62
0
66
1
70
9
0
VERTEX
8
1
10
-60.925054
20
49.596279
30
-21.819848
0
VERTEX
8
1
10
-60.925054
20
45.386980
30
-20.691970
0
VERTEX
8
1
10
-165.925054
20
45.386980
30
-20.691970
0
VERTEX
8
1
10
-165.925054
20
49.596279
30
-21.819848
0
SEQEND
0
POLYLINE
8
1
62
0
66
1
70
9
0
VERTEX
8
1
10
-60.925054
20
45.386980
30
-20.691970
0
VERTEX
8
1
10
-60.925054
20
41.437484
30
-18.850290
0
VERTEX
8
1
10
-165.925054
20
41.437484
30
-18.850290
0
VERTEX
8
1
10
-165.925054
20
45.386980
30
-20.691970
0
SEQEND
0
POLYLINE
8
1
62
0
66
1
70
9
0
VERTEX
8
1
10
-60.925054
20
41.437484
30
-18.850290
0
VERTEX
8
1
10
-60.925054
20
37.867794
30
-16.350766
0
VERTEX
8
1
10
-165.925054
20
37.867794
30
-16.350766
0
VERTEX
8
1
10
-165.925054
20
41.437484
30
-18.850290
0
SEQEND
0
POLYLINE
8
1
62
0
66
1
70
9
0
VERTEX
8
1
10
-60.925054
20
37.867794
30
-16.350766
0
VERTEX
8
1
10
-60.925054
20
34.786373
30
-13.269345
0
VERTEX
8
1
10
-165.925054
20
34.786373
30
-13.269345
0
VERTEX
8
1
10
-165.925054
20
37.867794
30
-16.350766
0
SEQEND
0
POLYLINE
8
1
62
0
66
1
70
9
0
VERTEX
8
1
10
-60.925054
20
34.786373
30
-13.269345
0
VERTEX
8
1
10
-60.925054
20
32.286849
30
-9.699654
0
VERTEX
8
1
10
-165.925054
20
32.286849
30
-9.699654
0
VERTEX
8
1
10
-165.925054
20
34.786373
30
-13.269345
0
SEQEND
0
POLYLINE
8
1
62
0
66
1
70
9
0
VERTEX
8
1
10
-60.925054
20
32.286849
30
-9.699654
0
VERTEX
8
1
10
-60.925054
20
30.445168
30
-5.750158
0
VERTEX
8
1
10
-165.925054
20
30.445168
30
-5.750158
0
VERTEX
8
1
10
-165.925054
20
32.286849
30
-9.699654
0
SEQEND
0
POLYLINE
8
1
62
0
66
1
70
9
0
VERTEX
8
1
10
-60.925054
20
30.445168
30
-5.750158
0
VERTEX
8
1
10
-60.925054
20
29.317290
30
-1.540859
0
VERTEX
8
1
10
-165.925054
20
29.317290
30
-1.540859
0
VERTEX
8
1
10
-165.925054
20
30.445168
30
-5.750158
0
SEQEND
0
POLYLINE
8
1
62
0
66
1
70
9
0
VERTEX
8
1
10
-60.925054
20
29.317290
30
-1.540859
0
VERTEX
8
1
10
-60.925054
20
28.937484
30
2.800346
0
VERTEX
8
1
10
-165.925054
20
28.937484
30
2.800346
0
VERTEX
8
1
10
-165.925054
20
29.317290
30
-1.540859
0
SEQEND
0
POLYLINE
8
1
62
0
66
1
70
9
0
VERTEX
8
1
10
-60.925054
20
28.937484
30
2.800346
0
VERTEX
8
1
10
-60.925054
20
29.317290
30
7.141550
0
VERTEX
8
1
10
-165.925054
20
29.317290
30
7.141550
0
VERTEX
8
1
10
-165.925054
20
28.937484
30
2.800346
0
SEQEND
0
POLYLINE
8
1
62
0
66
1
70
9
0
VERTEX
8
1
10
-60.925054
20
29.317290
30
7.141550
0
VERTEX
8
1
10
-60.925054
20
30.445168
30
11.350849
0
VERTEX
8
1
10
-165.925054
20
30.445168
30
11.350849
0
VERTEX
8
1
10
-165.925054
20
29.317290
30
7.141550
0
SEQEND
0
POLYLINE
8
1
62
0
66
1
70
9
0
VERTEX
8
1
10
-60.925054
20
30.445168
30
11.350849
0
VERTEX
8
1
10
-60.925054
20
32.286849
30
15.300346
0
VERTEX
8
1
10
-165.925054
20
32.286849
30
15.300346
0
VERTEX
8
1
10
-165.925054
20
30.445168
30
11.350849
0
SEQEND
0
POLYLINE
8
1
62
0
66
1
70
9
0
VERTEX
8
1
10
-60.925054
20
32.286849
30
15.300346
0
VERTEX
8
1
10
-60.925054
20
34.786373
30
18.870036
0
VERTEX
8
1
10
-165.925054
20
34.786373
30
18.870036
0
VERTEX
8
1
10
-165.925054
20
32.286849
30
15.300346
0
SEQEND
0
POLYLINE
8
1
62
0
66
1
70
9
0
VERTEX
8
1
10
-60.925054
20
34.786373
30
18.870036
0
VERTEX
8
1
10
-60.925054
20
37.867794
30
21.951457
0
VERTEX
8
1
10
-165.925054
20
37.867794
30
21.951457
0
VERTEX
8
1
10
-165.925054
20
34.786373
30
18.870036
0
SEQEND
0
POLYLINE
8
1
62
0
66
1
70
9
0
VERTEX
8
1
10
-60.925054
20
37.867794
30
21.951457
0
VERTEX
8
1
10
-60.925054
20
41.437484
30
24.450981
0
VERTEX
8
1
10
-165.925054
20
41.437484
30
24.450981
0
VERTEX
8
1
10
-165.925054
20
37.867794
30
21.951457
0
SEQEND
0
POLYLINE
8
1
62
0
66
1
70
9
0
VERTEX
8
1
10
-60.925054
20
41.437484
30
24.450981
0
VERTEX
8
1
10
-60.925054
20
45.386980
30
26.292661
0
VERTEX
8
1
10
-165.925054
20
45.386980
30
26.292661
0
VERTEX
8
1
10
-165.925054
20
41.437484
30
24.450981
0
SEQEND
0
POLYLINE
8
1
62
0
66
1
70
9
0
VERTEX
8
1
10
-60.925054
20
45.386980
30
26.292661
0
VERTEX
8
1
10
-60.925054
20
49.596279
30
27.420539
0
VERTEX
8
1
10
-165.925054
20
49.596279
30
27.420539
0
VERTEX
8
1
10
-165.925054
20
45.386980
30
26.292661
0
SEQEND
0
POLYLINE
8
1
62
0
66
1
70
9
0
VERTEX
8
1
10
-60.925054
20
49.596279
30
27.420539
0
VERTEX
8
1
10
-60.925054
20
53.937484
30
27.800346
0
VERTEX
8
1
10
-165.925054
20
53.937484
30
27.800346
0
VERTEX
8
1
10
-165.925054
20
49.596279
30
27.420539
0
SEQEND
0
POLYLINE
8
1
62
0
66
1
70
9
0
VERTEX
8
1
10
-60.925054
20
49.596279
30
27.420539
0
VERTEX
8
1
10
-60.925054
20
45.386980
30
26.292661
0
VERTEX
8
1
10
-60.925054
20
41.437484
30
24.450981
0
VERTEX
8
1
10
-60.925054
20
37.867794
30
21.951457
0
VERTEX
8
1
10
-60.925054
20
34.786373
30
18.870036
0
VERTEX
8
1
10
-60.925054
20
32.286849
30
15.300346
0
VERTEX
8
1
10
-60.925054
20
30.445168
30
11.350849
0
VERTEX
8
1
10
-60.925054
20
29.317290
30
7.141550
0
VERTEX
8
1
10
-60.925054
20
28.937484
30
2.800346
0
VERTEX
8
1
10
-60.925054
20
29.317290
30
-1.540859
0
VERTEX
8
1
10
-60.925054
20
30.445168
30
-5.750158
0
VERTEX
8
1
10
-60.925054
20
32.286849
30
-9.699654
0
VERTEX
8
1
10
-60.925054
20
34.786373
30
-13.269345
0
VERTEX
8
1
10
-60.925054
20
37.867794
30
-16.350766
0
VERTEX
8
1
10
-60.925054
20
41.437484
30
-18.850290
0
VERTEX
8
1
10
-60.925054
20
45.386980
30
-20.691970
0
VERTEX
8
1
10
-60.925054
20
49.596279
30
-21.819848
0
VERTEX
8
1
10
-60.925054
20
53.937484
30
-22.199654
0
VERTEX
8
1
10
-60.925054
20
58.278688
30
-21.819848
0
VERTEX
8
1
10
-60.925054
20
62.487987
30
-20.691970
0
VERTEX
8
1
10
-60.925054
20
66.437484
30
-18.850290
0
VERTEX
8
1
10
-60.925054
20
70.007174
30
-16.350766
0
VERTEX
8
1
10
-60.925054
20
73.088595
30
-13.269345
0
VERTEX
8
1
10
-60.925054
20
75.588119
30
-9.699654
0
VERTEX
8
1
10
-60.925054
20
77.429799
30
-5.750158
0
VERTEX
8
1
10
-60.925054
20
78.557678
30
-1.540859
0
VERTEX
8
1
10
-60.925054
20
78.937484
30
2.800346
0
VERTEX
8
1
10
-60.925054
20
78.557678
30
7.141550
0
VERTEX
8
1
10
-60.925054
20
77.429799
30
11.350849
0
VERTEX
8
1
10
-60.925054
20
75.588119
30
15.300346
0
VERTEX
8
1
10
-60.925054
20
73.088595
30
18.870036
0
VERTEX
8
1
10
-60.925054
20
70.007174
30
21.951457
0
VERTEX
8
1
10
-60.925054
20
66.437484
30
24.450981
0
VERTEX
8
1
10
-60.925054
20
62.487987
30
26.292661
0
VERTEX
8
1
10
-60.925054
20
58.278688
30
27.420539
0
VERTEX
8
1
10
-60.925054
20
53.937484
30
27.800346
0
SEQEND
0
POLYLINE
8
1
62
0
66
1
70
9
0
VERTEX
8
1
10
-165.925054
20
53.937484
30
27.800346
0
VERTEX
8
1
10
-165.925054
20
58.278688
30
27.420539
0
VERTEX
8
1
10
-165.925054
20
62.487987
30
26.292661
0
VERTEX
8
1
10
-165.925054
20
66.437484
30
24.450981
0
VERTEX
8
1
10
-165.925054
20
70.007174
30
21.951457
0
VERTEX
8
1
10
-165.925054
20
73.088595
30
18.870036
0
VERTEX
8
1
10
-165.925054
20
75.588119
30
15.300346
0
VERTEX
8
1
10
-165.925054
20
77.429799
30
11.350849
0
VERTEX
8
1
10
-165.925054
20
78.557678
30
7.141550
0
VERTEX
8
1
10
-165.925054
20
78.937484
30
2.800346
0
VERTEX
8
1
10
-165.925054
20
78.557678
30
-1.540859
0
VERTEX
8
1
10
-165.925054
20
77.429799
30
-5.750158
0
VERTEX
8
1
10
-165.925054
20
75.588119
30
-9.699654
0
VERTEX
8
1
10
-165.925054
20
73.088595
30
-13.269345
0
VERTEX
8
1
10
-165.925054
20
70.007174
30
-16.350766
0
VERTEX
8
1
10
-165.925054
20
66.437484
30
-18.850290
0
VERTEX
8
1
10
-165.925054
20
62.487987
30
-20.691970
0
VERTEX
8
1
10
-165.925054
20
58.278688
30
-21.819848
0
VERTEX
8
1
10
-165.925054
20
53.937484
30
-22.199654
0
VERTEX
8
1
10
-165.925054
20
49.596279
30
-21.819848
0
VERTEX
8
1
10
-165.925054
20
45.386980
30
-20.691970
0
VERTEX
8
1
10
-165.925054
20
41.437484
30
-18.850290
0
VERTEX
8
1
10
-165.925054
20
37.867794
30
-16.350766
0
VERTEX
8
1
10
-165.925054
20
34.786373
30
-13.269345
0
VERTEX
8
1
10
-165.925054
20
32.286849
30
-9.699654
0
VERTEX
8
1
10
-165.925054
20
30.445168
30
-5.750158
0
VERTEX
8
1
10
-165.925054
20
29.317290
30
-1.540859
0
VERTEX
8
1
10
-165.925054
20
28.937484
30
2.800346
0
VERTEX
8
1
10
-165.925054
20
29.317290
30
7.141550
0
VERTEX
8
1
10
-165.925054
20
30.445168
30
11.350849
0
VERTEX
8
1
10
-165.925054
20
32.286849
30
15.300346
0
VERTEX
8
1
10
-165.925054
20
34.786373
30
18.870036
0
VERTEX
8
1
10
-165.925054
20
37.867794
30
21.951457
0
VERTEX
8
1
10
-165.925054
20
41.437484
30
24.450981
0
VERTEX
8
1
10
-165.925054
20
45.386980
30
26.292661
0
VERTEX
8
1
10
-165.925054
20
49.596279
30
27.420539
0
SEQEND
0
POLYLINE
8
kedersystem
62
0
66
1
70
9
0
VERTEX
8
kedersystem
10
-42.847781
20
53.937484
30
-11.699654
0
VERTEX
8
kedersystem
10
-42.558525
20
52.251038
30
-11.402289
0
VERTEX
8
kedersystem
10
-41.707774
20
50.763404
30
-11.139979
0
VERTEX
8
kedersystem
10
-40.396711
20
49.656448
30
-10.944792
0
VERTEX
8
kedersystem
10
-38.783944
20
49.066475
30
-10.840764
0
VERTEX
8
kedersystem
10
-37.066163
20
49.066475
30
-10.840764
0
VERTEX
8
kedersystem
10
-35.453396
20
49.656448
30
-10.944792
0
VERTEX
8
kedersystem
10
-34.142333
20
50.763404
30
-11.139979
0
VERTEX
8
kedersystem
10
-33.291582
20
52.251038
30
-11.402289
0
VERTEX
8
kedersystem
10
-33.002326
20
53.937484
30
-11.699654
0
VERTEX
8
kedersystem
10
-29.925054
20
53.937484
30
-11.699654
0
VERTEX
8
kedersystem
10
-29.925054
20
48.978192
30
-10.825197
0
VERTEX
8
kedersystem
10
-45.925054
20
48.978192
30
-10.825197
0
VERTEX
8
kedersystem
10
-45.925054
20
53.937484
30
-11.699654
0
SEQEND
0
POLYLINE
8
kedersystem
62
0
66
1
70
9
0
VERTEX
8
kedersystem
10
-29.925054
20
44.617064
30
13.907990
0
VERTEX
8
kedersystem
10
-29.925054
20
48.978192
30
16.425889
0
VERTEX
8
kedersystem
10
-35.167506
20
48.978192
30
16.425889
0
VERTEX
8
kedersystem
10
-36.938767
20
48.343972
30
16.059721
0
VERTEX
8
kedersystem
10
-38.911341
20
48.343972
30
16.059721
0
VERTEX
8
kedersystem
10
-40.682601
20
48.978192
30
16.425889
0
VERTEX
8
kedersystem
10
-45.925054
20
48.978192
30
16.425889
0
VERTEX
8
kedersystem
10
-45.925054
20
44.617064
30
13.907990
0
SEQEND
0
POLYLINE
8
kedersystem
62
0
66
1
70
9
0
VERTEX
8
kedersystem
10
-40.682601
20
48.978192
30
16.425889
0
VERTEX
8
kedersystem
10
-40.770024
20
49.009851
30
16.431471
0
VERTEX
8
kedersystem
10
-42.288465
20
50.276147
30
16.654753
0
VERTEX
8
kedersystem
10
-43.285299
20
51.986514
30
16.956337
0
VERTEX
8
kedersystem
10
-43.638690
20
53.937484
30
17.300346
0
VERTEX
8
kedersystem
10
-45.925054
20
53.937484
30
17.300346
0
VERTEX
8
kedersystem
10
-45.925054
20
48.978192
30
16.425889
0
SEQEND
0
POLYLINE
8
kedersystem
62
0
66
1
70
9
0
VERTEX
8
kedersystem
10
-32.564808
20
51.986514
30
16.956337
0
VERTEX
8
kedersystem
10
-33.561642
20
50.276147
30
16.654753
0
VERTEX
8
kedersystem
10
-35.080084
20
49.009851
30
16.431471
0
VERTEX
8
kedersystem
10
-35.167506
20
48.978192
30
16.425889
0
VERTEX
8
kedersystem
10
-29.925054
20
48.978192
30
16.425889
0
VERTEX
8
kedersystem
10
-29.925054
20
53.937484
30
17.300346
0
VERTEX
8
kedersystem
10
-32.211417
20
53.937484
30
17.300346
0
SEQEND
0
POLYLINE
8
kedersystem
62
0
66
1
70
9
0
VERTEX
8
kedersystem
10
-43.638690
20
53.937484
30
17.300346
0
VERTEX
8
kedersystem
10
-43.285299
20
55.888454
30
16.956337
0
VERTEX
8
kedersystem
10
-42.288465
20
57.598821
30
16.654753
0
VERTEX
8
kedersystem
10
-40.770024
20
58.865116
30
16.431471
0
VERTEX
8
kedersystem
10
-40.682601
20
58.896776
30
16.425889
0
VERTEX
8
kedersystem
10
-45.925054
20
58.896776
30
16.425889
0
VERTEX
8
kedersystem
10
-45.925054
20
53.937484
30
17.300346
0
SEQEND
0
POLYLINE
8
kedersystem
62
0
66
1
70
9
0
VERTEX
8
kedersystem
10
-35.080084
20
58.865116
30
16.431471
0
VERTEX
8
kedersystem
10
-33.561642
20
57.598821
30
16.654753
0
VERTEX
8
kedersystem
10
-32.564808
20
55.888454
30
16.956337
0
VERTEX
8
kedersystem
10
-32.211417
20
53.937484
30
17.300346
0
VERTEX
8
kedersystem
10
-29.925054
20
53.937484
30
17.300346
0
VERTEX
8
kedersystem
10
-29.925054
20
58.896776
30
16.425889
0
VERTEX
8
kedersystem
10
-35.167506
20
58.896776
30
16.425889
0
SEQEND
0
POLYLINE
8
kedersystem
62
0
66
1
70
9
0
VERTEX
8
kedersystem
10
-40.682601
20
58.896776
30
16.425889
0
VERTEX
8
kedersystem
10
-38.911341
20
59.530996
30
16.059721
0
VERTEX
8
kedersystem
10
-36.938767
20
59.530996
30
16.059721
0
VERTEX
8
kedersystem
10
-35.167506
20
58.896776
30
16.425889
0
VERTEX
8
kedersystem
10
-29.925054
20
58.896776
30
16.425889
0
VERTEX
8
kedersystem
10
-29.925054
20
63.257904
30
13.907990
0
VERTEX
8
kedersystem
10
-45.925054
20
63.257904
30
13.907990
0
VERTEX
8
kedersystem
10
-45.925054
20
58.896776
30
16.425889
0
SEQEND
0
POLYLINE
8
kedersystem
62
0
66
1
70
9
0
VERTEX
8
kedersystem
10
-29.925054
20
58.896776
30
-10.825197
0
VERTEX
8
kedersystem
10
-29.925054
20
53.937484
30
-11.699654
0
VERTEX
8
kedersystem
10
-33.002326
20
53.937484
30
-11.699654
0
VERTEX
8
kedersystem
10
-33.291582
20
55.623930
30
-11.402289
0
VERTEX
8
kedersystem
10
-34.142333
20
57.111563
30
-11.139979
0
VERTEX
8
kedersystem
10
-35.453396
20
58.218520
30
-10.944792
0
VERTEX
8
kedersystem
10
-37.066163
20
58.808492
30
-10.840764
0
VERTEX
8
kedersystem
10
-38.783944
20
58.808492
30
-10.840764
0
VERTEX
8
kedersystem
10
-40.396711
20
58.218520
30
-10.944792
0
VERTEX
8
kedersystem
10
-41.707774
20
57.111563
30
-11.139979
0
VERTEX
8
kedersystem
10
-42.558525
20
55.623930
30
-11.402289
0
VERTEX
8
kedersystem
10
-42.847781
20
53.937484
30
-11.699654
0
VERTEX
8
kedersystem
10
-45.925054
20
53.937484
30
-11.699654
0
VERTEX
8
kedersystem
10
-45.925054
20
58.896776
30
-10.825197
0
SEQEND
0
POLYLINE
8
kedersystem
62
0
66
1
70
9
0
VERTEX
8
kedersystem
10
-43.285299
20
51.986514
30
16.956337
0
VERTEX
8
kedersystem
10
-42.558525
20
52.251038
30
-11.402289
0
VERTEX
8
kedersystem
10
-42.847781
20
53.937484
30
-11.699654
0
VERTEX
8
kedersystem
10
-43.638690
20
53.937484
30
17.300346
0
SEQEND
0
POLYLINE
8
kedersystem
62
0
66
1
70
9
0
VERTEX
8
kedersystem
10
-42.288465
20
50.276147
30
16.654753
0
VERTEX
8
kedersystem
10
-41.707774
20
50.763404
30
-11.139979
0
VERTEX
8
kedersystem
10
-42.558525
20
52.251038
30
-11.402289
0
VERTEX
8
kedersystem
10
-43.285299
20
51.986514
30
16.956337
0
SEQEND
0
POLYLINE
8
kedersystem
62
0
66
1
70
9
0
VERTEX
8
kedersystem
10
-40.770024
20
49.009851
30
16.431471
0
VERTEX
8
kedersystem
10
-40.396711
20
49.656448
30
-10.944792
0
VERTEX
8
kedersystem
10
-41.707774
20
50.763404
30
-11.139979
0
VERTEX
8
kedersystem
10
-42.288465
20
50.276147
30
16.654753
0
SEQEND
0
POLYLINE
8
kedersystem
62
0
66
1
70
9
0
VERTEX
8
kedersystem
10
-38.911341
20
48.343972
30
16.059721
0
VERTEX
8
kedersystem
10
-38.783944
20
49.066475
30
-10.840764
0
VERTEX
8
kedersystem
10
-40.396711
20
49.656448
30
-10.944792
0
VERTEX
8
kedersystem
10
-40.770024
20
49.009851
30
16.431471
0
VERTEX
8
kedersystem
10
-40.682601
20
48.978192
30
16.425889
0
SEQEND
0
POLYLINE
8
kedersystem
62
0
66
1
70
9
0
VERTEX
8
kedersystem
10
-36.938767
20
48.343972
30
16.059721
0
VERTEX
8
kedersystem
10
-37.066163
20
49.066475
30
-10.840764
0
VERTEX
8
kedersystem
10
-38.783944
20
49.066475
30
-10.840764
0
VERTEX
8
kedersystem
10
-38.911341
20
48.343972
30
16.059721
0
SEQEND
0
POLYLINE
8
kedersystem
62
0
66
1
70
9
0
VERTEX
8
kedersystem
10
-35.080084
20
49.009851
30
16.431471
0
VERTEX
8
kedersystem
10
-35.453396
20
49.656448
30
-10.944792
0
VERTEX
8
kedersystem
10
-37.066163
20
49.066475
30
-10.840764
0
VERTEX
8
kedersystem
10
-36.938767
20
48.343972
30
16.059721
0
VERTEX
8
kedersystem
10
-35.167506
20
48.978192
30
16.425889
0
SEQEND
0
POLYLINE
8
kedersystem
62
0
66
1
70
9
0
VERTEX
8
kedersystem
10
-33.561642
20
50.276147
30
16.654753
0
VERTEX
8
kedersystem
10
-34.142333
20
50.763404
30
-11.139979
0
VERTEX
8
kedersystem
10
-35.453396
20
49.656448
30
-10.944792
0
VERTEX
8
kedersystem
10
-35.080084
20
49.009851
30
16.431471
0
SEQEND
0
POLYLINE
8
kedersystem
62
0
66
1
70
9
0
VERTEX
8
kedersystem
10
-32.564808
20
51.986514
30
16.956337
0
VERTEX
8
kedersystem
10
-33.291582
20
52.251038
30
-11.402289
0
VERTEX
8
kedersystem
10
-34.142333
20
50.763404
30
-11.139979
0
VERTEX
8
kedersystem
10
-33.561642
20
50.276147
30
16.654753
0
SEQEND
0
POLYLINE
8
kedersystem
62
0
66
1
70
9
0
VERTEX
8
kedersystem
10
-32.211417
20
53.937484
30
17.300346
0
VERTEX
8
kedersystem
10
-33.002326
20
53.937484
30
-11.699654
0
VERTEX
8
kedersystem
10
-33.291582
20
52.251038
30
-11.402289
0
VERTEX
8
kedersystem
10
-32.564808
20
51.986514
30
16.956337
0
SEQEND
0
POLYLINE
8
kedersystem
62
0
66
1
70
9
0
VERTEX
8
kedersystem
10
-32.564808
20
55.888454
30
16.956337
0
VERTEX
8
kedersystem
10
-33.291582
20
55.623930
30
-11.402289
0
VERTEX
8
kedersystem
10
-33.002326
20
53.937484
30
-11.699654
0
VERTEX
8
kedersystem
10
-32.211417
20
53.937484
30
17.300346
0
SEQEND
0
POLYLINE
8
kedersystem
62
0
66
1
70
9
0
VERTEX
8
kedersystem
10
-33.561642
20
57.598821
30
16.654753
0
VERTEX
8
kedersystem
10
-34.142333
20
57.111563
30
-11.139979
0
VERTEX
8
kedersystem
10
-33.291582
20
55.623930
30
-11.402289
0
VERTEX
8
kedersystem
10
-32.564808
20
55.888454
30
16.956337
0
SEQEND
0
POLYLINE
8
kedersystem
62
0
66
1
70
9
0
VERTEX
8
kedersystem
10
-35.080084
20
58.865116
30
16.431471
0
VERTEX
8
kedersystem
10
-35.453396
20
58.218520
30
-10.944792
0
VERTEX
8
kedersystem
10
-34.142333
20
57.111563
30
-11.139979
0
VERTEX
8
kedersystem
10
-33.561642
20
57.598821
30
16.654753
0
SEQEND
0
POLYLINE
8
kedersystem
62
0
66
1
70
9
0
VERTEX
8
kedersystem
10
-36.938767
20
59.530996
30
16.059721
0
VERTEX
8
kedersystem
10
-37.066163
20
58.808492
30
-10.840764
0
VERTEX
8
kedersystem
10
-35.453396
20
58.218520
30
-10.944792
0
VERTEX
8
kedersystem
10
-35.080084
20
58.865116
30
16.431471
0
VERTEX
8
kedersystem
10
-35.167506
20
58.896776
30
16.425889
0
SEQEND
0
POLYLINE
8
kedersystem
62
0
66
1
70
9
0
VERTEX
8
kedersystem
10
-38.911341
20
59.530996
30
16.059721
0
VERTEX
8
kedersystem
10
-38.783944
20
58.808492
30
-10.840764
0
VERTEX
8
kedersystem
10
-37.066163
20
58.808492
30
-10.840764
0
VERTEX
8
kedersystem
10
-36.938767
20
59.530996
30
16.059721
0
SEQEND
0
POLYLINE
8
kedersystem
62
0
66
1
70
9
0
VERTEX
8
kedersystem
10
-40.770024
20
58.865116
30
16.431471
0
VERTEX
8
kedersystem
10
-40.396711
20
58.218520
30
-10.944792
0
VERTEX
8
kedersystem
10
-38.783944
20
58.808492
30
-10.840764
0
VERTEX
8
kedersystem
10
-38.911341
20
59.530996
30
16.059721
0
VERTEX
8
kedersystem
10
-40.682601
20
58.896776
30
16.425889
0
SEQEND
0
POLYLINE
8
kedersystem
62
0
66
1
70
9
0
VERTEX
8
kedersystem
10
-42.288465
20
57.598821
30
16.654753
0
VERTEX
8
kedersystem
10
-41.707774
20
57.111563
30
-11.139979
0
VERTEX
8
kedersystem
10
-40.396711
20
58.218520
30
-10.944792
0
VERTEX
8
kedersystem
10
-40.770024
20
58.865116
30
16.431471
0
SEQEND
0
POLYLINE
8
kedersystem
62
0
66
1
70
9
0
VERTEX
8
kedersystem
10
-43.285299
20
55.888454
30
16.956337
0
VERTEX
8
kedersystem
10
-42.558525
20
55.623930
30
-11.402289
0
VERTEX
8
kedersystem
10
-41.707774
20
57.111563
30
-11.139979
0
VERTEX
8
kedersystem
10
-42.288465
20
57.598821
30
16.654753
0
SEQEND
0
POLYLINE
8
kedersystem
62
0
66
1
70
9
0
VERTEX
8
kedersystem
10
-43.638690
20
53.937484
30
17.300346
0
VERTEX
8
kedersystem
10
-42.847781
20
53.937484
30
-11.699654
0
VERTEX
8
kedersystem
10
-42.558525
20
55.623930
30
-11.402289
0
VERTEX
8
kedersystem
10
-43.285299
20
55.888454
30
16.956337
0
SEQEND
0
POLYLINE
8
kedersystem
62
0
66
1
70
9
0
VERTEX
8
kedersystem
10
-29.925054
20
48.978192
30
-10.825197
0
VERTEX
8
kedersystem
10
-29.925054
20
44.617064
30
-8.307299
0
VERTEX
8
kedersystem
10
-45.925054
20
44.617064
30
-8.307299
0
VERTEX
8
kedersystem
10
-45.925054
20
48.978192
30
-10.825197
0
SEQEND
0
POLYLINE
8
kedersystem
62
0
66
1
70
9
0
VERTEX
8
kedersystem
10
-29.925054
20
44.617064
30
-8.307299
0
VERTEX
8
kedersystem
10
-29.925054
20
41.380115
30
-4.449654
0
VERTEX
8
kedersystem
10
-45.925054
20
41.380115
30
-4.449654
0
VERTEX
8
kedersystem
10
-45.925054
20
44.617064
30
-8.307299
0
SEQEND
0
POLYLINE
8
kedersystem
62
0
66
1
70
9
0
VERTEX
8
kedersystem
10
-29.925054
20
41.380115
30
-4.449654
0
VERTEX
8
kedersystem
10
-29.925054
20
39.657771
30
0.282447
0
VERTEX
8
kedersystem
10
-45.925054
20
39.657771
30
0.282447
0
VERTEX
8
kedersystem
10
-45.925054
20
41.380115
30
-4.449654
0
SEQEND
0
POLYLINE
8
kedersystem
62
0
66
1
70
9
0
VERTEX
8
kedersystem
10
-29.925054
20
39.657771
30
0.282447
0
VERTEX
8
kedersystem
10
-29.925054
20
39.657771
30
5.318244
0
VERTEX
8
kedersystem
10
-45.925054
20
39.657771
30
5.318244
0
VERTEX
8
kedersystem
10
-45.925054
20
39.657771
30
0.282447
0
SEQEND
0
POLYLINE
8
kedersystem
62
0
66
1
70
9
0
VERTEX
8
kedersystem
10
-29.925054
20
39.657771
30
5.318244
0
VERTEX
8
kedersystem
10
-29.925054
20
41.380115
30
10.050346
0
VERTEX
8
kedersystem
10
-45.925054
20
41.380115
30
10.050346
0
VERTEX
8
kedersystem
10
-45.925054
20
39.657771
30
5.318244
0
SEQEND
0
POLYLINE
8
kedersystem
62
0
66
1
70
9
0
VERTEX
8
kedersystem
10
-29.925054
20
41.380115
30
10.050346
0
VERTEX
8
kedersystem
10
-29.925054
20
44.617064
30
13.907990
0
VERTEX
8
kedersystem
10
-45.925054
20
44.617064
30
13.907990
0
VERTEX
8
kedersystem
10
-45.925054
20
41.380115
30
10.050346
0
SEQEND
0
POLYLINE
8
kedersystem
62
0
66
1
70
9
0
VERTEX
8
kedersystem
10
-29.925054
20
63.257904
30
13.907990
0
VERTEX
8
kedersystem
10
-29.925054
20
66.494852
30
10.050346
0
VERTEX
8
kedersystem
10
-45.925054
20
66.494852
30
10.050346
0
VERTEX
8
kedersystem
10
-45.925054
20
63.257904
30
13.907990
0
SEQEND
0
POLYLINE
8
kedersystem
62
0
66
1
70
9
0
VERTEX
8
kedersystem
10
-29.925054
20
66.494852
30
10.050346
0
VERTEX
8
kedersystem
10
-29.925054
20
68.217196
30
5.318244
0
VERTEX
8
kedersystem
10
-45.925054
20
68.217196
30
5.318244
0
VERTEX
8
kedersystem
10
-45.925054
20
66.494852
30
10.050346
0
SEQEND
0
POLYLINE
8
kedersystem
62
0
66
1
70
9
0
VERTEX
8
kedersystem
10
-29.925054
20
68.217196
30
5.318244
0
VERTEX
8
kedersystem
10
-29.925054
20
68.217196
30
0.282447
0
VERTEX
8
kedersystem
10
-45.925054
20
68.217196
30
0.282447
0
VERTEX
8
kedersystem
10
-45.925054
20
68.217196
30
5.318244
0
SEQEND
0
POLYLINE
8
kedersystem
62
0
66
1
70
9
0
VERTEX
8
kedersystem
10
-29.925054
20
68.217196
30
0.282447
0
VERTEX
8
kedersystem
10
-29.925054
20
66.494852
30
-4.449654
0
VERTEX
8
kedersystem
10
-45.925054
20
66.494852
30
-4.449654
0
VERTEX
8
kedersystem
10
-45.925054
20
68.217196
30
0.282447
0
SEQEND
0
POLYLINE
8
kedersystem
62
0
66
1
70
9
0
VERTEX
8
kedersystem
10
-29.925054
20
66.494852
30
-4.449654
0
VERTEX
8
kedersystem
10
-29.925054
20
63.257904
30
-8.307299
0
VERTEX
8
kedersystem
10
-45.925054
20
63.257904
30
-8.307299
0
VERTEX
8
kedersystem
10
-45.925054
20
66.494852
30
-4.449654
0
SEQEND
0
POLYLINE
8
kedersystem
62
0
66
1
70
9
0
VERTEX
8
kedersystem
10
-29.925054
20
63.257904
30
-8.307299
0
VERTEX
8
kedersystem
10
-29.925054
20
58.896776
30
-10.825197
0
VERTEX
8
kedersystem
10
-45.925054
20
58.896776
30
-10.825197
0
VERTEX
8
kedersystem
10
-45.925054
20
63.257904
30
-8.307299
0
SEQEND
0
POLYLINE
8
kedersystem
62
0
66
1
70
9
0
VERTEX
8
kedersystem
10
-45.925054
20
53.937484
30
-11.699654
0
VERTEX
8
kedersystem
10
-45.925054
20
48.978192
30
-10.825197
0
VERTEX
8
kedersystem
10
-60.925054
20
47.952131
30
-13.644275
0
VERTEX
8
kedersystem
10
-60.925054
20
53.937484
30
-14.699654
0
SEQEND
0
POLYLINE
8
kedersystem
62
0
66
1
70
9
0
VERTEX
8
kedersystem
10
-45.925054
20
48.978192
30
-10.825197
0
VERTEX
8
kedersystem
10
-45.925054
20
44.617064
30
-8.307299
0
VERTEX
8
kedersystem
10
-60.925054
20
42.688701
30
-10.605432
0
VERTEX
8
kedersystem
10
-60.925054
20
47.952131
30
-13.644275
0
SEQEND
0
POLYLINE
8
kedersystem
62
0
66
1
70
9
0
VERTEX
8
kedersystem
10
-45.925054
20
44.617064
30
-8.307299
0
VERTEX
8
kedersystem
10
-45.925054
20
41.380115
30
-4.449654
0
VERTEX
8
kedersystem
10
-60.925054
20
38.782039
30
-5.949654
0
VERTEX
8
kedersystem
10
-60.925054
20
42.688701
30
-10.605432
0
SEQEND
0
POLYLINE
8
kedersystem
62
0
66
1
70
9
0
VERTEX
8
kedersystem
10
-45.925054
20
41.380115
30
-4.449654
0
VERTEX
8
kedersystem
10
-45.925054
20
39.657771
30
0.282447
0
VERTEX
8
kedersystem
10
-60.925054
20
36.703348
30
-0.238498
0
VERTEX
8
kedersystem
10
-60.925054
20
38.782039
30
-5.949654
0
SEQEND
0
POLYLINE
8
kedersystem
62
0
66
1
70
9
0
VERTEX
8
kedersystem
10
-45.925054
20
39.657771
30
0.282447
0
VERTEX
8
kedersystem
10
-45.925054
20
39.657771
30
5.318244
0
VERTEX
8
kedersystem
10
-60.925054
20
36.703348
30
5.839189
0
VERTEX
8
kedersystem
10
-60.925054
20
36.703348
30
-0.238498
0
SEQEND
0
POLYLINE
8
kedersystem
62
0
66
1
70
9
0
VERTEX
8
kedersystem
10
-45.925054
20
39.657771
30
5.318244
0
VERTEX
8
kedersystem
10
-45.925054
20
41.380115
30
10.050346
0
VERTEX
8
kedersystem
10
-60.925054
20
38.782039
30
11.550346
0
VERTEX
8
kedersystem
10
-60.925054
20
36.703348
30
5.839189
0
SEQEND
0
POLYLINE
8
kedersystem
62
0
66
1
70
9
0
VERTEX
8
kedersystem
10
-45.925054
20
41.380115
30
10.050346
0
VERTEX
8
kedersystem
10
-45.925054
20
44.617064
30
13.907990
0
VERTEX
8
kedersystem
10
-60.925054
20
42.688701
30
16.206123
0
VERTEX
8
kedersystem
10
-60.925054
20
38.782039
30
11.550346
0
SEQEND
0
POLYLINE
8
kedersystem
62
0
66
1
70
9
0
VERTEX
8
kedersystem
10
-45.925054
20
44.617064
30
13.907990
0
VERTEX
8
kedersystem
10
-45.925054
20
48.978192
30
16.425889
0
VERTEX
8
kedersystem
10
-60.925054
20
47.952131
30
19.244966
0
VERTEX
8
kedersystem
10
-60.925054
20
42.688701
30
16.206123
0
SEQEND
0
POLYLINE
8
kedersystem
62
0
66
1
70
9
0
VERTEX
8
kedersystem
10
-45.925054
20
48.978192
30
16.425889
0
VERTEX
8
kedersystem
10
-45.925054
20
53.937484
30
17.300346
0
VERTEX
8
kedersystem
10
-60.925054
20
53.937484
30
20.300346
0
VERTEX
8
kedersystem
10
-60.925054
20
47.952131
30
19.244966
0
SEQEND
0
POLYLINE
8
kedersystem
62
0
66
1
70
9
0
VERTEX
8
kedersystem
10
-45.925054
20
53.937484
30
17.300346
0
VERTEX
8
kedersystem
10
-45.925054
20
58.896776
30
16.425889
0
VERTEX
8
kedersystem
10
-60.925054
20
59.922836
30
19.244966
0
VERTEX
8
kedersystem
10
-60.925054
20
53.937484
30
20.300346
0
SEQEND
0
POLYLINE
8
kedersystem
62
0
66
1
70
9
0
VERTEX
8
kedersystem
10
-45.925054
20
58.896776
30
16.425889
0
VERTEX
8
kedersystem
10
-45.925054
20
63.257904
30
13.907990
0
VERTEX
8
kedersystem
10
-60.925054
20
65.186267
30
16.206123
0
VERTEX
8
kedersystem
10
-60.925054
20
59.922836
30
19.244966
0
SEQEND
0
POLYLINE
8
kedersystem
62
0
66
1
70
9
0
VERTEX
8
kedersystem
10
-45.925054
20
63.257904
30
13.907990
0
VERTEX
8
kedersystem
10
-45.925054
20
66.494852
30
10.050346
0
VERTEX
8
kedersystem
10
-60.925054
20
69.092928
30
11.550346
0
VERTEX
8
kedersystem
10
-60.925054
20
65.186267
30
16.206123
0
SEQEND
0
POLYLINE
8
kedersystem
62
0
66
1
70
9
0
VERTEX
8
kedersystem
10
-45.925054
20
66.494852
30
10.050346
0
VERTEX
8
kedersystem
10
-45.925054
20
68.217196
30
5.318244
0
VERTEX
8
kedersystem
10
-60.925054
20
71.171620
30
5.839189
0
VERTEX
8
kedersystem
10
-60.925054
20
69.092928
30
11.550346
0
SEQEND
0
POLYLINE
8
kedersystem
62
0
66
1
70
9
0
VERTEX
8
kedersystem
10
-45.925054
20
68.217196
30
5.318244
0
VERTEX
8
kedersystem
10
-45.925054
20
68.217196
30
0.282447
0
VERTEX
8
kedersystem
10
-60.925054
20
71.171620
30
-0.238498
0
VERTEX
8
kedersystem
10
-60.925054
20
71.171620
30
5.839189
0
SEQEND
0
POLYLINE
8
kedersystem
62
0
66
1
70
9
0
VERTEX
8
kedersystem
10
-45.925054
20
68.217196
30
0.282447
0
VERTEX
8
kedersystem
10
-45.925054
20
66.494852
30
-4.449654
0
VERTEX
8
kedersystem
10
-60.925054
20
69.092928
30
-5.949654
0
VERTEX
8
kedersystem
10
-60.925054
20
71.171620
30
-0.238498
0
SEQEND
0
POLYLINE
8
kedersystem
62
0
66
1
70
9
0
VERTEX
8
kedersystem
10
-45.925054
20
66.494852
30
-4.449654
0
VERTEX
8
kedersystem
10
-45.925054
20
63.257904
30
-8.307299
0
VERTEX
8
kedersystem
10
-60.925054
20
65.186267
30
-10.605432
0
VERTEX
8
kedersystem
10
-60.925054
20
69.092928
30
-5.949654
0
SEQEND
0
POLYLINE
8
kedersystem
62
0
66
1
70
9
0
VERTEX
8
kedersystem
10
-45.925054
20
63.257904
30
-8.307299
0
VERTEX
8
kedersystem
10
-45.925054
20
58.896776
30
-10.825197
0
VERTEX
8
kedersystem
10
-60.925054
20
59.922836
30
-13.644275
0
VERTEX
8
kedersystem
10
-60.925054
20
65.186267
30
-10.605432
0
SEQEND
0
POLYLINE
8
kedersystem
62
0
66
1
70
9
0
VERTEX
8
kedersystem
10
-45.925054
20
58.896776
30
-10.825197
0
VERTEX
8
kedersystem
10
-45.925054
20
53.937484
30
-11.699654
0
VERTEX
8
kedersystem
10
-60.925054
20
53.937484
30
-14.699654
0
VERTEX
8
kedersystem
10
-60.925054
20
59.922836
30
-13.644275
0
SEQEND
0
POLYLINE
8
kedersystem
62
0
66
1
70
9
0
VERTEX
8
kedersystem
10
-21.708123
20
53.937484
30
-9.873670
0
VERTEX
8
kedersystem
10
-21.708123
20
49.602715
30
-9.109333
0
VERTEX
8
kedersystem
10
-29.925054
20
48.978192
30
-10.825197
0
VERTEX
8
kedersystem
10
-29.925054
20
53.937484
30
-11.699654
0
SEQEND
0
POLYLINE
8
kedersystem
62
0
66
1
70
9
0
VERTEX
8
kedersystem
10
-21.708123
20
49.602715
30
-9.109333
0
VERTEX
8
kedersystem
10
-21.708123
20
45.790784
30
-6.908514
0
VERTEX
8
kedersystem
10
-29.925054
20
44.617064
30
-8.307299
0
VERTEX
8
kedersystem
10
-29.925054
20
48.978192
30
-10.825197
0
SEQEND
0
POLYLINE
8
kedersystem
62
0
66
1
70
9
0
VERTEX
8
kedersystem
10
-21.708123
20
45.790784
30
-6.908514
0
VERTEX
8
kedersystem
10
-21.708123
20
42.961465
30
-3.536662
0
VERTEX
8
kedersystem
10
-29.925054
20
41.380115
30
-4.449654
0
VERTEX
8
kedersystem
10
-29.925054
20
44.617064
30
-8.307299
0
SEQEND
0
POLYLINE
8
kedersystem
62
0
66
1
70
9
0
VERTEX
8
kedersystem
10
-21.708123
20
42.961465
30
-3.536662
0
VERTEX
8
kedersystem
10
-21.708123
20
41.456015
30
0.599526
0
VERTEX
8
kedersystem
10
-29.925054
20
39.657771
30
0.282447
0
VERTEX
8
kedersystem
10
-29.925054
20
41.380115
30
-4.449654
0
SEQEND
0
POLYLINE
8
kedersystem
62
0
66
1
70
9
0
VERTEX
8
kedersystem
10
-21.708123
20
41.456015
30
0.599526
0
VERTEX
8
kedersystem
10
-21.708123
20
41.456015
30
5.001165
0
VERTEX
8
kedersystem
10
-29.925054
20
39.657771
30
5.318244
0
VERTEX
8
kedersystem
10
-29.925054
20
39.657771
30
0.282447
0
SEQEND
0
POLYLINE
8
kedersystem
62
0
66
1
70
9
0
VERTEX
8
kedersystem
10
-21.708123
20
41.456015
30
5.001165
0
VERTEX
8
kedersystem
10
-21.708123
20
42.961465
30
9.137353
0
VERTEX
8
kedersystem
10
-29.925054
20
41.380115
30
10.050346
0
VERTEX
8
kedersystem
10
-29.925054
20
39.657771
30
5.318244
0
SEQEND
0
POLYLINE
8
kedersystem
62
0
66
1
70
9
0
VERTEX
8
kedersystem
10
-21.708123
20
42.961465
30
9.137353
0
VERTEX
8
kedersystem
10
-21.708123
20
45.790784
30
12.509205
0
VERTEX
8
kedersystem
10
-29.925054
20
44.617064
30
13.907990
0
VERTEX
8
kedersystem
10
-29.925054
20
41.380115
30
10.050346
0
SEQEND
0
POLYLINE
8
kedersystem
62
0
66
1
70
9
0
VERTEX
8
kedersystem
10
-21.708123
20
45.790784
30
12.509205
0
VERTEX
8
kedersystem
10
-21.708123
20
49.602715
30
14.710024
0
VERTEX
8
kedersystem
10
-29.925054
20
48.978192
30
16.425889
0
VERTEX
8
kedersystem
10
-29.925054
20
44.617064
30
13.907990
0
SEQEND
0
POLYLINE
8
kedersystem
62
0
66
1
70
9
0
VERTEX
8
kedersystem
10
-21.708123
20
49.602715
30
14.710024
0
VERTEX
8
kedersystem
10
-21.708123
20
53.937484
30
15.474361
0
VERTEX
8
kedersystem
10
-29.925054
20
53.937484
30
17.300346
0
VERTEX
8
kedersystem
10
-29.925054
20
48.978192
30
16.425889
0
SEQEND
0
POLYLINE
8
kedersystem
62
0
66
1
70
9
0
VERTEX
8
kedersystem
10
-21.708123
20
53.937484
30
15.474361
0
VERTEX
8
kedersystem
10
-21.708123
20
58.272252
30
14.710024
0
VERTEX
8
kedersystem
10
-29.925054
20
58.896776
30
16.425889
0
VERTEX
8
kedersystem
10
-29.925054
20
53.937484
30
17.300346
0
SEQEND
0
POLYLINE
8
kedersystem
62
0
66
1
70
9
0
VERTEX
8
kedersystem
10
-21.708123
20
58.272252
30
14.710024
0
VERTEX
8
kedersystem
10
-21.708123
20
62.084184
30
12.509205
0
VERTEX
8
kedersystem
10
-29.925054
20
63.257904
30
13.907990
0
VERTEX
8
kedersystem
10
-29.925054
20
58.896776
30
16.425889
0
SEQEND
0
POLYLINE
8
kedersystem
62
0
66
1
70
9
0
VERTEX
8
kedersystem
10
-21.708123
20
62.084184
30
12.509205
0
VERTEX
8
kedersystem
10
-21.708123
20
64.913503
30
9.137353
0
VERTEX
8
kedersystem
10
-29.925054
20
66.494852
30
10.050346
0
VERTEX
8
kedersystem
10
-29.925054
20
63.257904
30
13.907990
0
SEQEND
0
POLYLINE
8
kedersystem
62
0
66
1
70
9
0
VERTEX
8
kedersystem
10
-21.708123
20
64.913503
30
9.137353
0
VERTEX
8
kedersystem
10
-21.708123
20
66.418953
30
5.001165
0
VERTEX
8
kedersystem
10
-29.925054
20
68.217196
30
5.318244
0
VERTEX
8
kedersystem
10
-29.925054
20
66.494852
30
10.050346
0
SEQEND
0
POLYLINE
8
kedersystem
62
0
66
1
70
9
0
VERTEX
8
kedersystem
10
-21.708123
20
66.418953
30
5.001165
0
VERTEX
8
kedersystem
10
-21.708123
20
66.418953
30
0.599526
0
VERTEX
8
kedersystem
10
-29.925054
20
68.217196
30
0.282447
0
VERTEX
8
kedersystem
10
-29.925054
20
68.217196
30
5.318244
0
SEQEND
0
POLYLINE
8
kedersystem
62
0
66
1
70
9
0
VERTEX
8
kedersystem
10
-21.708123
20
66.418953
30
0.599526
0
VERTEX
8
kedersystem
10
-21.708123
20
64.913503
30
-3.536662
0
VERTEX
8
kedersystem
10
-29.925054
20
66.494852
30
-4.449654
0
VERTEX
8
kedersystem
10
-29.925054
20
68.217196
30
0.282447
0
SEQEND
0
POLYLINE
8
kedersystem
62
0
66
1
70
9
0
VERTEX
8
kedersystem
10
-21.708123
20
64.913503
30
-3.536662
0
VERTEX
8
kedersystem
10
-21.708123
20
62.084184
30
-6.908514
0
VERTEX
8
kedersystem
10
-29.925054
20
63.257904
30
-8.307299
0
VERTEX
8
kedersystem
10
-29.925054
20
66.494852
30
-4.449654
0
SEQEND
0
POLYLINE
8
kedersystem
62
0
66
1
70
9
0
VERTEX
8
kedersystem
10
-21.708123
20
62.084184
30
-6.908514
0
VERTEX
8
kedersystem
10
-21.708123
20
58.272252
30
-9.109333
0
VERTEX
8
kedersystem
10
-29.925054
20
58.896776
30
-10.825197
0
VERTEX
8
kedersystem
10
-29.925054
20
63.257904
30
-8.307299
0
SEQEND
0
POLYLINE
8
kedersystem
62
0
66
1
70
9
0
VERTEX
8
kedersystem
10
-21.708123
20
58.272252
30
-9.109333
0
VERTEX
8
kedersystem
10
-21.708123
20
53.937484
30
-9.873670
0
VERTEX
8
kedersystem
10
-29.925054
20
53.937484
30
-11.699654
0
VERTEX
8
kedersystem
10
-29.925054
20
58.896776
30
-10.825197
0
SEQEND
0
POLYLINE
8
kedersystem
62
0
66
1
70
9
0
VERTEX
8
kedersystem
10
-20.925054
20
53.937484
30
-8.897483
0
VERTEX
8
kedersystem
10
-20.925054
20
57.938377
30
-8.192017
0
VERTEX
8
kedersystem
10
-20.925054
20
61.456703
30
-6.160711
0
VERTEX
8
kedersystem
10
-20.925054
20
64.068100
30
-3.048569
0
VERTEX
8
kedersystem
10
-20.925054
20
65.457596
30
0.769039
0
VERTEX
8
kedersystem
10
-20.925054
20
65.457596
30
4.831652
0
VERTEX
8
kedersystem
10
-20.925054
20
64.068100
30
8.649260
0
VERTEX
8
kedersystem
10
-20.925054
20
61.456703
30
11.761402
0
VERTEX
8
kedersystem
10
-20.925054
20
57.938377
30
13.792709
0
VERTEX
8
kedersystem
10
-20.925054
20
53.937484
30
14.498174
0
VERTEX
8
kedersystem
10
-20.925054
20
49.936591
30
13.792709
0
VERTEX
8
kedersystem
10
-20.925054
20
46.418265
30
11.761402
0
VERTEX
8
kedersystem
10
-20.925054
20
43.806867
30
8.649260
0
VERTEX
8
kedersystem
10
-20.925054
20
42.417372
30
4.831652
0
VERTEX
8
kedersystem
10
-20.925054
20
42.417372
30
0.769039
0
VERTEX
8
kedersystem
10
-20.925054
20
43.806867
30
-3.048569
0
VERTEX
8
kedersystem
10
-20.925054
20
46.418265
30
-6.160711
0
VERTEX
8
kedersystem
10
-20.925054
20
49.936591
30
-8.192017
0
SEQEND
0
POLYLINE
8
kedersystem
62
0
66
1
70
9
0
VERTEX
8
kedersystem
10
-20.981645
20
46.205096
30
-6.414755
0
VERTEX
8
kedersystem
10
-20.981645
20
49.823166
30
-8.503649
0
VERTEX
8
kedersystem
10
-20.925054
20
49.936591
30
-8.192017
0
VERTEX
8
kedersystem
10
-20.925054
20
46.418265
30
-6.160711
0
SEQEND
0
POLYLINE
8
kedersystem
62
0
66
1
70
9
0
VERTEX
8
kedersystem
10
-21.708123
20
45.790784
30
-6.908514
0
VERTEX
8
kedersystem
10
-21.708123
20
49.602715
30
-9.109333
0
VERTEX
8
kedersystem
10
-21.396666
20
49.646215
30
-8.989819
0
VERTEX
8
kedersystem
10
-21.396666
20
45.872536
30
-6.811085
0
SEQEND
0
POLYLINE
8
kedersystem
62
0
66
1
70
9
0
VERTEX
8
kedersystem
10
-20.981645
20
49.823166
30
-8.503649
0
VERTEX
8
kedersystem
10
-20.981645
20
53.937484
30
-9.229114
0
VERTEX
8
kedersystem
10
-20.925054
20
53.937484
30
-8.897483
0
VERTEX
8
kedersystem
10
-20.925054
20
49.936591
30
-8.192017
0
SEQEND
0
POLYLINE
8
kedersystem
62
0
66
1
70
9
0
VERTEX
8
kedersystem
10
-21.708123
20
49.602715
30
-9.109333
0
VERTEX
8
kedersystem
10
-21.708123
20
53.937484
30
-9.873670
0
VERTEX
8
kedersystem
10
-21.396666
20
53.937484
30
-9.746486
0
VERTEX
8
kedersystem
10
-21.396666
20
49.646215
30
-8.989819
0
SEQEND
0
POLYLINE
8
kedersystem
62
0
66
1
70
9
0
VERTEX
8
kedersystem
10
-20.981645
20
53.937484
30
-9.229114
0
VERTEX
8
kedersystem
10
-20.981645
20
58.051801
30
-8.503649
0
VERTEX
8
kedersystem
10
-20.925054
20
57.938377
30
-8.192017
0
VERTEX
8
kedersystem
10
-20.925054
20
53.937484
30
-8.897483
0
SEQEND
0
POLYLINE
8
kedersystem
62
0
66
1
70
9
0
VERTEX
8
kedersystem
10
-21.708123
20
53.937484
30
-9.873670
0
VERTEX
8
kedersystem
10
-21.708123
20
58.272252
30
-9.109333
0
VERTEX
8
kedersystem
10
-21.396666
20
58.228753
30
-8.989819
0
VERTEX
8
kedersystem
10
-21.396666
20
53.937484
30
-9.746486
0
SEQEND
0
POLYLINE
8
kedersystem
62
0
66
1
70
9
0
VERTEX
8
kedersystem
10
-20.981645
20
58.051801
30
-8.503649
0
VERTEX
8
kedersystem
10
-20.981645
20
61.669871
30
-6.414755
0
VERTEX
8
kedersystem
10
-20.925054
20
61.456703
30
-6.160711
0
VERTEX
8
kedersystem
10
-20.925054
20
57.938377
30
-8.192017
0
SEQEND
0
POLYLINE
8
kedersystem
62
0
66
1
70
9
0
VERTEX
8
kedersystem
10
-21.708123
20
58.272252
30
-9.109333
0
VERTEX
8
kedersystem
10
-21.708123
20
62.084184
30
-6.908514
0
VERTEX
8
kedersystem
10
-21.396666
20
62.002432
30
-6.811085
0
VERTEX
8
kedersystem
10
-21.396666
20
58.228753
30
-8.989819
0
SEQEND
0
POLYLINE
8
kedersystem
62
0
66
1
70
9
0
VERTEX
8
kedersystem
10
-20.981645
20
61.669871
30
-6.414755
0
VERTEX
8
kedersystem
10
-20.981645
20
64.355301
30
-3.214384
0
VERTEX
8
kedersystem
10
-20.925054
20
64.068100
30
-3.048569
0
VERTEX
8
kedersystem
10
-20.925054
20
61.456703
30
-6.160711
0
SEQEND
0
POLYLINE
8
kedersystem
62
0
66
1
70
9
0
VERTEX
8
kedersystem
10
-21.708123
20
62.084184
30
-6.908514
0
VERTEX
8
kedersystem
10
-21.708123
20
64.913503
30
-3.536662
0
VERTEX
8
kedersystem
10
-21.396666
20
64.803359
30
-3.473070
0
VERTEX
8
kedersystem
10
-21.396666
20
62.002432
30
-6.811085
0
SEQEND
0
POLYLINE
8
kedersystem
62
0
66
1
70
9
0
VERTEX
8
kedersystem
10
-20.981645
20
64.355301
30
-3.214384
0
VERTEX
8
kedersystem
10
-20.981645
20
65.784189
30
0.711452
0
VERTEX
8
kedersystem
10
-20.925054
20
65.457596
30
0.769039
0
VERTEX
8
kedersystem
10
-20.925054
20
64.068100
30
-3.048569
0
SEQEND
0
POLYLINE
8
kedersystem
62
0
66
1
70
9
0
VERTEX
8
kedersystem
10
-21.708123
20
64.913503
30
-3.536662
0
VERTEX
8
kedersystem
10
-21.708123
20
66.418953
30
0.599526
0
VERTEX
8
kedersystem
10
-21.396666
20
66.293701
30
0.621611
0
VERTEX
8
kedersystem
10
-21.396666
20
64.803359
30
-3.473070
0
SEQEND
0
POLYLINE
8
kedersystem
62
0
66
1
70
9
0
VERTEX
8
kedersystem
10
-20.981645
20
65.784189
30
0.711452
0
VERTEX
8
kedersystem
10
-20.981645
20
65.784189
30
4.889239
0
VERTEX
8
kedersystem
10
-20.925054
20
65.457596
30
4.831652
0
VERTEX
8
kedersystem
10
-20.925054
20
65.457596
30
0.769039
0
SEQEND
0
POLYLINE
8
kedersystem
62
0
66
1
70
9
0
VERTEX
8
kedersystem
10
-21.708123
20
66.418953
30
0.599526
0
VERTEX
8
kedersystem
10
-21.708123
20
66.418953
30
5.001165
0
VERTEX
8
kedersystem
10
-21.396666
20
66.293701
30
4.979080
0
VERTEX
8
kedersystem
10
-21.396666
20
66.293701
30
0.621611
0
SEQEND
0
POLYLINE
8
kedersystem
62
0
66
1
70
9
0
VERTEX
8
kedersystem
10
-20.981645
20
65.784189
30
4.889239
0
VERTEX
8
kedersystem
10
-20.981645
20
64.355301
30
8.815075
0
VERTEX
8
kedersystem
10
-20.925054
20
64.068100
30
8.649260
0
VERTEX
8
kedersystem
10
-20.925054
20
65.457596
30
4.831652
0
SEQEND
0
POLYLINE
8
kedersystem
62
0
66
1
70
9
0
VERTEX
8
kedersystem
10
-21.708123
20
66.418953
30
5.001165
0
VERTEX
8
kedersystem
10
-21.708123
20
64.913503
30
9.137353
0
VERTEX
8
kedersystem
10
-21.396666
20
64.803359
30
9.073761
0
VERTEX
8
kedersystem
10
-21.396666
20
66.293701
30
4.979080
0
SEQEND
0
POLYLINE
8
kedersystem
62
0
66
1
70
9
0
VERTEX
8
kedersystem
10
-20.981645
20
64.355301
30
8.815075
0
VERTEX
8
kedersystem
10
-20.981645
20
61.669871
30
12.015446
0
VERTEX
8
kedersystem
10
-20.925054
20
61.456703
30
11.761402
0
VERTEX
8
kedersystem
10
-20.925054
20
64.068100
30
8.649260
0
SEQEND
0
POLYLINE
8
kedersystem
62
0
66
1
70
9
0
VERTEX
8
kedersystem
10
-21.708123
20
64.913503
30
9.137353
0
VERTEX
8
kedersystem
10
-21.708123
20
62.084184
30
12.509205
0
VERTEX
8
kedersystem
10
-21.396666
20
62.002432
30
12.411776
0
VERTEX
8
kedersystem
10
-21.396666
20
64.803359
30
9.073761
0
SEQEND
0
POLYLINE
8
kedersystem
62
0
66
1
70
9
0
VERTEX
8
kedersystem
10
-20.981645
20
61.669871
30
12.015446
0
VERTEX
8
kedersystem
10
-20.981645
20
58.051801
30
14.104340
0
VERTEX
8
kedersystem
10
-20.925054
20
57.938377
30
13.792709
0
VERTEX
8
kedersystem
10
-20.925054
20
61.456703
30
11.761402
0
SEQEND
0
POLYLINE
8
kedersystem
62
0
66
1
70
9
0
VERTEX
8
kedersystem
10
-21.708123
20
62.084184
30
12.509205
0
VERTEX
8
kedersystem
10
-21.708123
20
58.272252
30
14.710024
0
VERTEX
8
kedersystem
10
-21.396666
20
58.228753
30
14.590510
0
VERTEX
8
kedersystem
10
-21.396666
20
62.002432
30
12.411776
0
SEQEND
0
POLYLINE
8
kedersystem
62
0
66
1
70
9
0
VERTEX
8
kedersystem
10
-20.981645
20
58.051801
30
14.104340
0
VERTEX
8
kedersystem
10
-20.981645
20
53.937484
30
14.829805
0
VERTEX
8
kedersystem
10
-20.925054
20
53.937484
30
14.498174
0
VERTEX
8
kedersystem
10
-20.925054
20
57.938377
30
13.792709
0
SEQEND
0
POLYLINE
8
kedersystem
62
0
66
1
70
9
0
VERTEX
8
kedersystem
10
-21.708123
20
58.272252
30
14.710024
0
VERTEX
8
kedersystem
10
-21.708123
20
53.937484
30
15.474361
0
VERTEX
8
kedersystem
10
-21.396666
20
53.937484
30
15.347177
0
VERTEX
8
kedersystem
10
-21.396666
20
58.228753
30
14.590510
0
SEQEND
0
POLYLINE
8
kedersystem
62
0
66
1
70
9
0
VERTEX
8
kedersystem
10
-20.981645
20
53.937484
30
14.829805
0
VERTEX
8
kedersystem
10
-20.981645
20
49.823166
30
14.104340
0
VERTEX
8
kedersystem
10
-20.925054
20
49.936591
30
13.792709
0
VERTEX
8
kedersystem
10
-20.925054
20
53.937484
30
14.498174
0
SEQEND
0
POLYLINE
8
kedersystem
62
0
66
1
70
9
0
VERTEX
8
kedersystem
10
-21.708123
20
53.937484
30
15.474361
0
VERTEX
8
kedersystem
10
-21.708123
20
49.602715
30
14.710024
0
VERTEX
8
kedersystem
10
-21.396666
20
49.646215
30
14.590510
0
VERTEX
8
kedersystem
10
-21.396666
20
53.937484
30
15.347177
0
SEQEND
0
POLYLINE
8
kedersystem
62
0
66
1
70
9
0
VERTEX
8
kedersystem
10
-20.981645
20
49.823166
30
14.104340
0
VERTEX
8
kedersystem
10
-20.981645
20
46.205096
30
12.015446
0
VERTEX
8
kedersystem
10
-20.925054
20
46.418265
30
11.761402
0
VERTEX
8
kedersystem
10
-20.925054
20
49.936591
30
13.792709
0
SEQEND
0
POLYLINE
8
kedersystem
62
0
66
1
70
9
0
VERTEX
8
kedersystem
10
-21.708123
20
49.602715
30
14.710024
0
VERTEX
8
kedersystem
10
-21.708123
20
45.790784
30
12.509205
0
VERTEX
8
kedersystem
10
-21.396666
20
45.872536
30
12.411776
0
VERTEX
8
kedersystem
10
-21.396666
20
49.646215
30
14.590510
0
SEQEND
0
POLYLINE
8
kedersystem
62
0
66
1
70
9
0
VERTEX
8
kedersystem
10
-20.981645
20
46.205096
30
12.015446
0
VERTEX
8
kedersystem
10
-20.981645
20
43.519666
30
8.815075
0
VERTEX
8
kedersystem
10
-20.925054
20
43.806867
30
8.649260
0
VERTEX
8
kedersystem
10
-20.925054
20
46.418265
30
11.761402
0
SEQEND
0
POLYLINE
8
kedersystem
62
0
66
1
70
9
0
VERTEX
8
kedersystem
10
-21.708123
20
45.790784
30
12.509205
0
VERTEX
8
kedersystem
10
-21.708123
20
42.961465
30
9.137353
0
VERTEX
8
kedersystem
10
-21.396666
20
43.071609
30
9.073761
0
VERTEX
8
kedersystem
10
-21.396666
20
45.872536
30
12.411776
0
SEQEND
0
POLYLINE
8
kedersystem
62
0
66
1
70
9
0
VERTEX
8
kedersystem
10
-20.981645
20
43.519666
30
8.815075
0
VERTEX
8
kedersystem
10
-20.981645
20
42.090779
30
4.889239
0
VERTEX
8
kedersystem
10
-20.925054
20
42.417372
30
4.831652
0
VERTEX
8
kedersystem
10
-20.925054
20
43.806867
30
8.649260
0
SEQEND
0
POLYLINE
8
kedersystem
62
0
66
1
70
9
0
VERTEX
8
kedersystem
10
-21.708123
20
42.961465
30
9.137353
0
VERTEX
8
kedersystem
10
-21.708123
20
41.456015
30
5.001165
0
VERTEX
8
kedersystem
10
-21.396666
20
41.581267
30
4.979080
0
VERTEX
8
kedersystem
10
-21.396666
20
43.071609
30
9.073761
0
SEQEND
0
POLYLINE
8
kedersystem
62
0
66
1
70
9
0
VERTEX
8
kedersystem
10
-20.981645
20
42.090779
30
4.889239
0
VERTEX
8
kedersystem
10
-20.981645
20
42.090779
30
0.711452
0
VERTEX
8
kedersystem
10
-20.925054
20
42.417372
30
0.769039
0
VERTEX
8
kedersystem
10
-20.925054
20
42.417372
30
4.831652
0
SEQEND
0
POLYLINE
8
kedersystem
62
0
66
1
70
9
0
VERTEX
8
kedersystem
10
-21.708123
20
41.456015
30
5.001165
0
VERTEX
8
kedersystem
10
-21.708123
20
41.456015
30
0.599526
0
VERTEX
8
kedersystem
10
-21.396666
20
41.581267
30
0.621611
0
VERTEX
8
kedersystem
10
-21.396666
20
41.581267
30
4.979080
0
SEQEND
0
POLYLINE
8
kedersystem
62
0
66
1
70
9
0
VERTEX
8
kedersystem
10
-20.981645
20
42.090779
30
0.711452
0
VERTEX
8
kedersystem
10
-20.981645
20
43.519666
30
-3.214384
0
VERTEX
8
kedersystem
10
-20.925054
20
43.806867
30
-3.048569
0
VERTEX
8
kedersystem
10
-20.925054
20
42.417372
30
0.769039
0
SEQEND
0
POLYLINE
8
kedersystem
62
0
66
1
70
9
0
VERTEX
8
kedersystem
10
-21.708123
20
41.456015
30
0.599526
0
VERTEX
8
kedersystem
10
-21.708123
20
42.961465
30
-3.536662
0
VERTEX
8
kedersystem
10
-21.396666
20
43.071609
30
-3.473070
0
VERTEX
8
kedersystem
10
-21.396666
20
41.581267
30
0.621611
0
SEQEND
0
POLYLINE
8
kedersystem
62
0
66
1
70
9
0
VERTEX
8
kedersystem
10
-20.981645
20
43.519666
30
-3.214384
0
VERTEX
8
kedersystem
10
-20.981645
20
46.205096
30
-6.414755
0
VERTEX
8
kedersystem
10
-20.925054
20
46.418265
30
-6.160711
0
VERTEX
8
kedersystem
10
-20.925054
20
43.806867
30
-3.048569
0
SEQEND
0
POLYLINE
8
kedersystem
62
0
66
1
70
9
0
VERTEX
8
kedersystem
10
-21.708123
20
42.961465
30
-3.536662
0
VERTEX
8
kedersystem
10
-21.708123
20
45.790784
30
-6.908514
0
VERTEX
8
kedersystem
10
-21.396666
20
45.872536
30
-6.811085
0
VERTEX
8
kedersystem
10
-21.396666
20
43.071609
30
-3.473070
0
SEQEND
0
POLYLINE
8
kedersystem
62
0
66
1
70
9
0
VERTEX
8
kedersystem
10
-21.145012
20
49.722580
30
-8.780009
0
VERTEX
8
kedersystem
10
-20.981645
20
49.823166
30
-8.503649
0
VERTEX
8
kedersystem
10
-20.981645
20
46.205096
30
-6.414755
0
SEQEND
0
POLYLINE
8
kedersystem
62
0
66
1
70
9
0
VERTEX
8
kedersystem
10
-21.145012
20
46.016055
30
-6.640046
0
VERTEX
8
kedersystem
10
-21.145012
20
49.722580
30
-8.780009
0
VERTEX
8
kedersystem
10
-20.981645
20
46.205096
30
-6.414755
0
SEQEND
0
POLYLINE
8
kedersystem
62
0
66
1
70
9
0
VERTEX
8
kedersystem
10
-21.396666
20
49.646215
30
-8.989819
0
VERTEX
8
kedersystem
10
-21.145012
20
49.722580
30
-8.780009
0
VERTEX
8
kedersystem
10
-21.145012
20
46.016055
30
-6.640046
0
SEQEND
0
POLYLINE
8
kedersystem
62
0
66
1
70
9
0
VERTEX
8
kedersystem
10
-21.396666
20
45.872536
30
-6.811085
0
VERTEX
8
kedersystem
10
-21.396666
20
49.646215
30
-8.989819
0
VERTEX
8
kedersystem
10
-21.145012
20
46.016055
30
-6.640046
0
SEQEND
0
POLYLINE
8
kedersystem
62
0
66
1
70
9
0
VERTEX
8
kedersystem
10
-21.145012
20
53.937484
30
-9.523210
0
VERTEX
8
kedersystem
10
-20.981645
20
53.937484
30
-9.229114
0
VERTEX
8
kedersystem
10
-20.981645
20
49.823166
30
-8.503649
0
SEQEND
0
POLYLINE
8
kedersystem
62
0
66
1
70
9
0
VERTEX
8
kedersystem
10
-21.145012
20
49.722580
30
-8.780009
0
VERTEX
8
kedersystem
10
-21.145012
20
53.937484
30
-9.523210
0
VERTEX
8
kedersystem
10
-20.981645
20
49.823166
30
-8.503649
0
SEQEND
0
POLYLINE
8
kedersystem
62
0
66
1
70
9
0
VERTEX
8
kedersystem
10
-21.396666
20
53.937484
30
-9.746486
0
VERTEX
8
kedersystem
10
-21.145012
20
53.937484
30
-9.523210
0
VERTEX
8
kedersystem
10
-21.145012
20
49.722580
30
-8.780009
0
SEQEND
0
POLYLINE
8
kedersystem
62
0
66
1
70
9
0
VERTEX
8
kedersystem
10
-21.396666
20
49.646215
30
-8.989819
0
VERTEX
8
kedersystem
10
-21.396666
20
53.937484
30
-9.746486
0
VERTEX
8
kedersystem
10
-21.145012
20
49.722580
30
-8.780009
0
SEQEND
0
POLYLINE
8
kedersystem
62
0
66
1
70
9
0
VERTEX
8
kedersystem
10
-21.145012
20
58.152388
30
-8.780009
0
VERTEX
8
kedersystem
10
-20.981645
20
58.051801
30
-8.503649
0
VERTEX
8
kedersystem
10
-20.981645
20
53.937484
30
-9.229114
0
SEQEND
0
POLYLINE
8
kedersystem
62
0
66
1
70
9
0
VERTEX
8
kedersystem
10
-21.145012
20
53.937484
30
-9.523210
0
VERTEX
8
kedersystem
10
-21.145012
20
58.152388
30
-8.780009
0
VERTEX
8
kedersystem
10
-20.981645
20
53.937484
30
-9.229114
0
SEQEND
0
POLYLINE
8
kedersystem
62
0
66
1
70
9
0
VERTEX
8
kedersystem
10
-21.396666
20
58.228753
30
-8.989819
0
VERTEX
8
kedersystem
10
-21.145012
20
58.152388
30
-8.780009
0
VERTEX
8
kedersystem
10
-21.145012
20
53.937484
30
-9.523210
0
SEQEND
0
POLYLINE
8
kedersystem
62
0
66
1
70
9
0
VERTEX
8
kedersystem
10
-21.396666
20
53.937484
30
-9.746486
0
VERTEX
8
kedersystem
10
-21.396666
20
58.228753
30
-8.989819
0
VERTEX
8
kedersystem
10
-21.145012
20
53.937484
30
-9.523210
0
SEQEND
0
POLYLINE
8
kedersystem
62
0
66
1
70
9
0
VERTEX
8
kedersystem
10
-21.145012
20
61.858913
30
-6.640046
0
VERTEX
8
kedersystem
10
-20.981645
20
61.669871
30
-6.414755
0
VERTEX
8
kedersystem
10
-20.981645
20
58.051801
30
-8.503649
0
SEQEND
0
POLYLINE
8
kedersystem
62
0
66
1
70
9
0
VERTEX
8
kedersystem
10
-21.145012
20
58.152388
30
-8.780009
0
VERTEX
8
kedersystem
10
-21.145012
20
61.858913
30
-6.640046
0
VERTEX
8
kedersystem
10
-20.981645
20
58.051801
30
-8.503649
0
SEQEND
0
POLYLINE
8
kedersystem
62
0
66
1
70
9
0
VERTEX
8
kedersystem
10
-21.396666
20
62.002432
30
-6.811085
0
VERTEX
8
kedersystem
10
-21.145012
20
61.858913
30
-6.640046
0
VERTEX
8
kedersystem
10
-21.145012
20
58.152388
30
-8.780009
0
SEQEND
0
POLYLINE
8
kedersystem
62
0
66
1
70
9
0
VERTEX
8
kedersystem
10
-21.396666
20
58.228753
30
-8.989819
0
VERTEX
8
kedersystem
10
-21.396666
20
62.002432
30
-6.811085
0
VERTEX
8
kedersystem
10
-21.145012
20
58.152388
30
-8.780009
0
SEQEND
0
POLYLINE
8
kedersystem
62
0
66
1
70
9
0
VERTEX
8
kedersystem
10
-21.145012
20
64.609996
30
-3.361432
0
VERTEX
8
kedersystem
10
-20.981645
20
64.355301
30
-3.214384
0
VERTEX
8
kedersystem
10
-20.981645
20
61.669871
30
-6.414755
0
SEQEND
0
POLYLINE
8
kedersystem
62
0
66
1
70
9
0
VERTEX
8
kedersystem
10
-21.145012
20
61.858913
30
-6.640046
0
VERTEX
8
kedersystem
10
-21.145012
20
64.609996
30
-3.361432
0
VERTEX
8
kedersystem
10
-20.981645
20
61.669871
30
-6.414755
0
SEQEND
0
POLYLINE
8
kedersystem
62
0
66
1
70
9
0
VERTEX
8
kedersystem
10
-21.396666
20
64.803359
30
-3.473070
0
VERTEX
8
kedersystem
10
-21.145012
20
64.609996
30
-3.361432
0
VERTEX
8
kedersystem
10
-21.145012
20
61.858913
30
-6.640046
0
SEQEND
0
POLYLINE
8
kedersystem
62
0
66
1
70
9
0
VERTEX
8
kedersystem
10
-21.396666
20
62.002432
30
-6.811085
0
VERTEX
8
kedersystem
10
-21.396666
20
64.803359
30
-3.473070
0
VERTEX
8
kedersystem
10
-21.145012
20
61.858913
30
-6.640046
0
SEQEND
0
POLYLINE
8
kedersystem
62
0
66
1
70
9
0
VERTEX
8
kedersystem
10
-21.145012
20
66.073817
30
0.660383
0
VERTEX
8
kedersystem
10
-20.981645
20
65.784189
30
0.711452
0
VERTEX
8
kedersystem
10
-20.981645
20
64.355301
30
-3.214384
0
SEQEND
0
POLYLINE
8
kedersystem
62
0
66
1
70
9
0
VERTEX
8
kedersystem
10
-21.145012
20
64.609996
30
-3.361432
0
VERTEX
8
kedersystem
10
-21.145012
20
66.073817
30
0.660383
0
VERTEX
8
kedersystem
10
-20.981645
20
64.355301
30
-3.214384
0
SEQEND
0
POLYLINE
8
kedersystem
62
0
66
1
70
9
0
VERTEX
8
kedersystem
10
-21.396666
20
66.293701
30
0.621611
0
VERTEX
8
kedersystem
10
-21.145012
20
66.073817
30
0.660383
0
VERTEX
8
kedersystem
10
-21.145012
20
64.609996
30
-3.361432
0
SEQEND
0
POLYLINE
8
kedersystem
62
0
66
1
70
9
0
VERTEX
8
kedersystem
10
-21.396666
20
64.803359
30
-3.473070
0
VERTEX
8
kedersystem
10
-21.396666
20
66.293701
30
0.621611
0
VERTEX
8
kedersystem
10
-21.145012
20
64.609996
30
-3.361432
0
SEQEND
0
POLYLINE
8
kedersystem
62
0
66
1
70
9
0
VERTEX
8
kedersystem
10
-21.145012
20
66.073817
30
4.940309
0
VERTEX
8
kedersystem
10
-20.981645
20
65.784189
30
4.889239
0
VERTEX
8
kedersystem
10
-20.981645
20
65.784189
30
0.711452
0
SEQEND
0
POLYLINE
8
kedersystem
62
0
66
1
70
9
0
VERTEX
8
kedersystem
10
-21.145012
20
66.073817
30
0.660383
0
VERTEX
8
kedersystem
10
-21.145012
20
66.073817
30
4.940309
0
VERTEX
8
kedersystem
10
-20.981645
20
65.784189
30
0.711452
0
SEQEND
0
POLYLINE
8
kedersystem
62
0
66
1
70
9
0
VERTEX
8
kedersystem
10
-21.396666
20
66.293701
30
4.979080
0
VERTEX
8
kedersystem
10
-21.145012
20
66.073817
30
4.940309
0
VERTEX
8
kedersystem
10
-21.145012
20
66.073817
30
0.660383
0
SEQEND
0
POLYLINE
8
kedersystem
62
0
66
1
70
9
0
VERTEX
8
kedersystem
10
-21.396666
20
66.293701
30
0.621611
0
VERTEX
8
kedersystem
10
-21.396666
20
66.293701
30
4.979080
0
VERTEX
8
kedersystem
10
-21.145012
20
66.073817
30
0.660383
0
SEQEND
0
POLYLINE
8
kedersystem
62
0
66
1
70
9
0
VERTEX
8
kedersystem
10
-21.145012
20
64.609996
30
8.962123
0
VERTEX
8
kedersystem
10
-20.981645
20
64.355301
30
8.815075
0
VERTEX
8
kedersystem
10
-20.981645
20
65.784189
30
4.889239
0
SEQEND
0
POLYLINE
8
kedersystem
62
0
66
1
70
9
0
VERTEX
8
kedersystem
10
-21.145012
20
66.073817
30
4.940309
0
VERTEX
8
kedersystem
10
-21.145012
20
64.609996
30
8.962123
0
VERTEX
8
kedersystem
10
-20.981645
20
65.784189
30
4.889239
0
SEQEND
0
POLYLINE
8
kedersystem
62
0
66
1
70
9
0
VERTEX
8
kedersystem
10
-21.396666
20
64.803359
30
9.073761
0
VERTEX
8
kedersystem
10
-21.145012
20
64.609996
30
8.962123
0
VERTEX
8
kedersystem
10
-21.145012
20
66.073817
30
4.940309
0
SEQEND
0
POLYLINE
8
kedersystem
62
0
66
1
70
9
0
VERTEX
8
kedersystem
10
-21.396666
20
66.293701
30
4.979080
0
VERTEX
8
kedersystem
10
-21.396666
20
64.803359
30
9.073761
0
VERTEX
8
kedersystem
10
-21.145012
20
66.073817
30
4.940309
0
SEQEND
0
POLYLINE
8
kedersystem
62
0
66
1
70
9
0
VERTEX
8
kedersystem
10
-21.145012
20
61.858913
30
12.240737
0
VERTEX
8
kedersystem
10
-20.981645
20
61.669871
30
12.015446
0
VERTEX
8
kedersystem
10
-20.981645
20
64.355301
30
8.815075
0
SEQEND
0
POLYLINE
8
kedersystem
62
0
66
1
70
9
0
VERTEX
8
kedersystem
10
-21.145012
20
64.609996
30
8.962123
0
VERTEX
8
kedersystem
10
-21.145012
20
61.858913
30
12.240737
0
VERTEX
8
kedersystem
10
-20.981645
20
64.355301
30
8.815075
0
SEQEND
0
POLYLINE
8
kedersystem
62
0
66
1
70
9
0
VERTEX
8
kedersystem
10
-21.396666
20
62.002432
30
12.411776
0
VERTEX
8
kedersystem
10
-21.145012
20
61.858913
30
12.240737
0
VERTEX
8
kedersystem
10
-21.145012
20
64.609996
30
8.962123
0
SEQEND
0
POLYLINE
8
kedersystem
62
0
66
1
70
9
0
VERTEX
8
kedersystem
10
-21.396666
20
64.803359
30
9.073761
0
VERTEX
8
kedersystem
10
-21.396666
20
62.002432
30
12.411776
0
VERTEX
8
kedersystem
10
-21.145012
20
64.609996
30
8.962123
0
SEQEND
0
POLYLINE
8
kedersystem
62
0
66
1
70
9
0
VERTEX
8
kedersystem
10
-21.145012
20
58.152388
30
14.380700
0
VERTEX
8
kedersystem
10
-20.981645
20
58.051801
30
14.104340
0
VERTEX
8
kedersystem
10
-20.981645
20
61.669871
30
12.015446
0
SEQEND
0
POLYLINE
8
kedersystem
62
0
66
1
70
9
0
VERTEX
8
kedersystem
10
-21.145012
20
61.858913
30
12.240737
0
VERTEX
8
kedersystem
10
-21.145012
20
58.152388
30
14.380700
0
VERTEX
8
kedersystem
10
-20.981645
20
61.669871
30
12.015446
0
SEQEND
0
POLYLINE
8
kedersystem
62
0
66
1
70
9
0
VERTEX
8
kedersystem
10
-21.396666
20
58.228753
30
14.590510
0
VERTEX
8
kedersystem
10
-21.145012
20
58.152388
30
14.380700
0
VERTEX
8
kedersystem
10
-21.145012
20
61.858913
30
12.240737
0
SEQEND
0
POLYLINE
8
kedersystem
62
0
66
1
70
9
0
VERTEX
8
kedersystem
10
-21.396666
20
62.002432
30
12.411776
0
VERTEX
8
kedersystem
10
-21.396666
20
58.228753
30
14.590510
0
VERTEX
8
kedersystem
10
-21.145012
20
61.858913
30
12.240737
0
SEQEND
0
POLYLINE
8
kedersystem
62
0
66
1
70
9
0
VERTEX
8
kedersystem
10
-21.145012
20
53.937484
30
15.123901
0
VERTEX
8
kedersystem
10
-20.981645
20
53.937484
30
14.829805
0
VERTEX
8
kedersystem
10
-20.981645
20
58.051801
30
14.104340
0
SEQEND
0
POLYLINE
8
kedersystem
62
0
66
1
70
9
0
VERTEX
8
kedersystem
10
-21.145012
20
58.152388
30
14.380700
0
VERTEX
8
kedersystem
10
-21.145012
20
53.937484
30
15.123901
0
VERTEX
8
kedersystem
10
-20.981645
20
58.051801
30
14.104340
0
SEQEND
0
POLYLINE
8
kedersystem
62
0
66
1
70
9
0
VERTEX
8
kedersystem
10
-21.396666
20
53.937484
30
15.347177
0
VERTEX
8
kedersystem
10
-21.145012
20
53.937484
30
15.123901
0
VERTEX
8
kedersystem
10
-21.145012
20
58.152388
30
14.380700
0
SEQEND
0
POLYLINE
8
kedersystem
62
0
66
1
70
9
0
VERTEX
8
kedersystem
10
-21.396666
20
58.228753
30
14.590510
0
VERTEX
8
kedersystem
10
-21.396666
20
53.937484
30
15.347177
0
VERTEX
8
kedersystem
10
-21.145012
20
58.152388
30
14.380700
0
SEQEND
0
POLYLINE
8
kedersystem
62
0
66
1
70
9
0
VERTEX
8
kedersystem
10
-21.145012
20
49.722580
30
14.380700
0
VERTEX
8
kedersystem
10
-20.981645
20
49.823166
30
14.104340
0
VERTEX
8
kedersystem
10
-20.981645
20
53.937484
30
14.829805
0
SEQEND
0
POLYLINE
8
kedersystem
62
0
66
1
70
9
0
VERTEX
8
kedersystem
10
-21.145012
20
53.937484
30
15.123901
0
VERTEX
8
kedersystem
10
-21.145012
20
49.722580
30
14.380700
0
VERTEX
8
kedersystem
10
-20.981645
20
53.937484
30
14.829805
0
SEQEND
0
POLYLINE
8
kedersystem
62
0
66
1
70
9
0
VERTEX
8
kedersystem
10
-21.396666
20
49.646215
30
14.590510
0
VERTEX
8
kedersystem
10
-21.145012
20
49.722580
30
14.380700
0
VERTEX
8
kedersystem
10
-21.145012
20
53.937484
30
15.123901
0
SEQEND
0
POLYLINE
8
kedersystem
62
0
66
1
70
9
0
VERTEX
8
kedersystem
10
-21.396666
20
53.937484
30
15.347177
0
VERTEX
8
kedersystem
10
-21.396666
20
49.646215
30
14.590510
0
VERTEX
8
kedersystem
10
-21.145012
20
53.937484
30
15.123901
0
SEQEND
0
POLYLINE
8
kedersystem
62
0
66
1
70
9
0
VERTEX
8
kedersystem
10
-21.145012
20
46.016055
30
12.240737
0
VERTEX
8
kedersystem
10
-20.981645
20
46.205096
30
12.015446
0
VERTEX
8
kedersystem
10
-20.981645
20
49.823166
30
14.104340
0
SEQEND
0
POLYLINE
8
kedersystem
62
0
66
1
70
9
0
VERTEX
8
kedersystem
10
-21.145012
20
49.722580
30
14.380700
0
VERTEX
8
kedersystem
10
-21.145012
20
46.016055
30
12.240737
0
VERTEX
8
kedersystem
10
-20.981645
20
49.823166
30
14.104340
0
SEQEND
0
POLYLINE
8
kedersystem
62
0
66
1
70
9
0
VERTEX
8
kedersystem
10
-21.396666
20
45.872536
30
12.411776
0
VERTEX
8
kedersystem
10
-21.145012
20
46.016055
30
12.240737
0
VERTEX
8
kedersystem
10
-21.145012
20
49.722580
30
14.380700
0
SEQEND
0
POLYLINE
8
kedersystem
62
0
66
1
70
9
0
VERTEX
8
kedersystem
10
-21.396666
20
49.646215
30
14.590510
0
VERTEX
8
kedersystem
10
-21.396666
20
45.872536
30
12.411776
0
VERTEX
8
kedersystem
10
-21.145012
20
49.722580
30
14.380700
0
SEQEND
0
POLYLINE
8
kedersystem
62
0
66
1
70
9
0
VERTEX
8
kedersystem
10
-21.145012
20
43.264971
30
8.962123
0
VERTEX
8
kedersystem
10
-20.981645
20
43.519666
30
8.815075
0
VERTEX
8
kedersystem
10
-20.981645
20
46.205096
30
12.015446
0
SEQEND
0
POLYLINE
8
kedersystem
62
0
66
1
70
9
0
VERTEX
8
kedersystem
10
-21.145012
20
46.016055
30
12.240737
0
VERTEX
8
kedersystem
10
-21.145012
20
43.264971
30
8.962123
0
VERTEX
8
kedersystem
10
-20.981645
20
46.205096
30
12.015446
0
SEQEND
0
POLYLINE
8
kedersystem
62
0
66
1
70
9
0
VERTEX
8
kedersystem
10
-21.396666
20
43.071609
30
9.073761
0
VERTEX
8
kedersystem
10
-21.145012
20
43.264971
30
8.962123
0
VERTEX
8
kedersystem
10
-21.145012
20
46.016055
30
12.240737
0
SEQEND
0
POLYLINE
8
kedersystem
62
0
66
1
70
9
0
VERTEX
8
kedersystem
10
-21.396666
20
45.872536
30
12.411776
0
VERTEX
8
kedersystem
10
-21.396666
20
43.071609
30
9.073761
0
VERTEX
8
kedersystem
10
-21.145012
20
46.016055
30
12.240737
0
SEQEND
0
POLYLINE
8
kedersystem
62
0
66
1
70
9
0
VERTEX
8
kedersystem
10
-21.145012
20
41.801151
30
4.940309
0
VERTEX
8
kedersystem
10
-20.981645
20
42.090779
30
4.889239
0
VERTEX
8
kedersystem
10
-20.981645
20
43.519666
30
8.815075
0
SEQEND
0
POLYLINE
8
kedersystem
62
0
66
1
70
9
0
VERTEX
8
kedersystem
10
-21.145012
20
43.264971
30
8.962123
0
VERTEX
8
kedersystem
10
-21.145012
20
41.801151
30
4.940309
0
VERTEX
8
kedersystem
10
-20.981645
20
43.519666
30
8.815075
0
SEQEND
0
POLYLINE
8
kedersystem
62
0
66
1
70
9
0
VERTEX
8
kedersystem
10
-21.396666
20
41.581267
30
4.979080
0
VERTEX
8
kedersystem
10
-21.145012
20
41.801151
30
4.940309
0
VERTEX
8
kedersystem
10
-21.145012
20
43.264971
30
8.962123
0
SEQEND
0
POLYLINE
8
kedersystem
62
0
66
1
70
9
0
VERTEX
8
kedersystem
10
-21.396666
20
43.071609
30
9.073761
0
VERTEX
8
kedersystem
10
-21.396666
20
41.581267
30
4.979080
0
VERTEX
8
kedersystem
10
-21.145012
20
43.264971
30
8.962123
0
SEQEND
0
POLYLINE
8
kedersystem
62
0
66
1
70
9
0
VERTEX
8
kedersystem
10
-21.145012
20
41.801151
30
0.660383
0
VERTEX
8
kedersystem
10
-20.981645
20
42.090779
30
0.711452
0
VERTEX
8
kedersystem
10
-20.981645
20
42.090779
30
4.889239
0
SEQEND
0
POLYLINE
8
kedersystem
62
0
66
1
70
9
0
VERTEX
8
kedersystem
10
-21.145012
20
41.801151
30
4.940309
0
VERTEX
8
kedersystem
10
-21.145012
20
41.801151
30
0.660383
0
VERTEX
8
kedersystem
10
-20.981645
20
42.090779
30
4.889239
0
SEQEND
0
POLYLINE
8
kedersystem
62
0
66
1
70
9
0
VERTEX
8
kedersystem
10
-21.396666
20
41.581267
30
0.621611
0
VERTEX
8
kedersystem
10
-21.145012
20
41.801151
30
0.660383
0
VERTEX
8
kedersystem
10
-21.145012
20
41.801151
30
4.940309
0
SEQEND
0
POLYLINE
8
kedersystem
62
0
66
1
70
9
0
VERTEX
8
kedersystem
10
-21.396666
20
41.581267
30
4.979080
0
VERTEX
8
kedersystem
10
-21.396666
20
41.581267
30
0.621611
0
VERTEX
8
kedersystem
10
-21.145012
20
41.801151
30
4.940309
0
SEQEND
0
POLYLINE
8
kedersystem
62
0
66
1
70
9
0
VERTEX
8
kedersystem
10
-21.145012
20
43.264971
30
-3.361432
0
VERTEX
8
kedersystem
10
-20.981645
20
43.519666
30
-3.214384
0
VERTEX
8
kedersystem
10
-20.981645
20
42.090779
30
0.711452
0
SEQEND
0
POLYLINE
8
kedersystem
62
0
66
1
70
9
0
VERTEX
8
kedersystem
10
-21.145012
20
41.801151
30
0.660383
0
VERTEX
8
kedersystem
10
-21.145012
20
43.264971
30
-3.361432
0
VERTEX
8
kedersystem
10
-20.981645
20
42.090779
30
0.711452
0
SEQEND
0
POLYLINE
8
kedersystem
62
0
66
1
70
9
0
VERTEX
8
kedersystem
10
-21.396666
20
43.071609
30
-3.473070
0
VERTEX
8
kedersystem
10
-21.145012
20
43.264971
30
-3.361432
0
VERTEX
8
kedersystem
10
-21.145012
20
41.801151
30
0.660383
0
SEQEND
0
POLYLINE
8
kedersystem
62
0
66
1
70
9
0
VERTEX
8
kedersystem
10
-21.396666
20
41.581267
30
0.621611
0
VERTEX
8
kedersystem
10
-21.396666
20
43.071609
30
-3.473070
0
VERTEX
8
kedersystem
10
-21.145012
20
41.801151
30
0.660383
0
SEQEND
0
POLYLINE
8
kedersystem
62
0
66
1
70
9
0
VERTEX
8
kedersystem
10
-21.145012
20
46.016055
30
-6.640046
0
VERTEX
8
kedersystem
10
-20.981645
20
46.205096
30
-6.414755
0
VERTEX
8
kedersystem
10
-20.981645
20
43.519666
30
-3.214384
0
SEQEND
0
POLYLINE
8
kedersystem
62
0
66
1
70
9
0
VERTEX
8
kedersystem
10
-21.145012
20
43.264971
30
-3.361432
0
VERTEX
8
kedersystem
10
-21.145012
20
46.016055
30
-6.640046
0
VERTEX
8
kedersystem
10
-20.981645
20
43.519666
30
-3.214384
0
SEQEND
0
POLYLINE
8
kedersystem
62
0
66
1
70
9
0
VERTEX
8
kedersystem
10
-21.396666
20
45.872536
30
-6.811085
0
VERTEX
8
kedersystem
10
-21.145012
20
46.016055
30
-6.640046
0
VERTEX
8
kedersystem
10
-21.145012
20
43.264971
30
-3.361432
0
SEQEND
0
POLYLINE
8
kedersystem
62
0
66
1
70
9
0
VERTEX
8
kedersystem
10
-21.396666
20
43.071609
30
-3.473070
0
VERTEX
8
kedersystem
10
-21.396666
20
45.872536
30
-6.811085
0
VERTEX
8
kedersystem
10
-21.145012
20
43.264971
30
-3.361432
0
SEQEND
0
POLYLINE
8
kedersystem
62
0
66
1
70
9
0
VERTEX
8
kedersystem
10
-60.925054
20
53.937484
30
-14.699654
0
VERTEX
8
kedersystem
10
-60.925054
20
47.952131
30
-13.644275
0
VERTEX
8
kedersystem
10
-60.925054
20
42.688701
30
-10.605432
0
VERTEX
8
kedersystem
10
-60.925054
20
38.782039
30
-5.949654
0
VERTEX
8
kedersystem
10
-60.925054
20
36.703348
30
-0.238498
0
VERTEX
8
kedersystem
10
-60.925054
20
36.703348
30
5.839189
0
VERTEX
8
kedersystem
10
-60.925054
20
38.782039
30
11.550346
0
VERTEX
8
kedersystem
10
-60.925054
20
42.688701
30
16.206123
0
VERTEX
8
kedersystem
10
-60.925054
20
47.952131
30
19.244966
0
VERTEX
8
kedersystem
10
-60.925054
20
53.937484
30
20.300346
0
VERTEX
8
kedersystem
10
-60.925054
20
59.922836
30
19.244966
0
VERTEX
8
kedersystem
10
-60.925054
20
65.186267
30
16.206123
0
VERTEX
8
kedersystem
10
-60.925054
20
69.092928
30
11.550346
0
VERTEX
8
kedersystem
10
-60.925054
20
71.171620
30
5.839189
0
VERTEX
8
kedersystem
10
-60.925054
20
71.171620
30
-0.238498
0
VERTEX
8
kedersystem
10
-60.925054
20
69.092928
30
-5.949654
0
VERTEX
8
kedersystem
10
-60.925054
20
65.186267
30
-10.605432
0
VERTEX
8
kedersystem
10
-60.925054
20
59.922836
30
-13.644275
0
SEQEND
0
ENDSEC
0
EOF
